#1
Okay so i had a guitar lesson yesterday and my teacher was showing me some new sweeping patterns he couldn't remember what song this was off of and its been bugging me

i think it is by the band As blood runs black

|--------------------------14h17p14---------------14h17p14-----------|
|---------------------14------------------------15-----------------15------|
|---------------15-------------------------13---------------------------13-|
|---------16-----------------------------------------------------------------|
|----17----------------------------------------------------------------------|
|-----------------------------------------------------------------------------|

|---------------------------------------------------------------------------|
|--------------------10h11p10-------10--------------------------------|
|---------------12----------------12--------12--10---9-----------------|
|---------12---------------------------------------------------------------|
|----13--------------------------------------------------------------------|
|---------------------------------------------------------------------------|
#2
i have no idea. thanx a lot now its gonna be buggin me too.lol
i've got a boner for murder
#3
I know which one it is.
sometimes I see us in a cymbal splash or in the sound of a car crash
#4
Quote by JohnnyGenzale
I know which one it is.


care to share? please im going insane
#5
Quote by PirateXc
care to share? please im going insane


I got to go. Sorry.
sometimes I see us in a cymbal splash or in the sound of a car crash
#7
Quote by JohnnyGenzale
I got to go. Sorry.


watta dick
i've got a boner for murder