#1
I don't really have a link, cause the only youtube video I could find is one of a live recording, which you could barely hear it, but those who may have the song, can anyone tab it out? I looked it up on tabs and, nothing. Anybody?


Wow I'm an idiot lol, Here's the link to the song. Audio Only.

http://www.youtube.com/watch?v=Mab5DytctmI
Last edited by SGlover69 at Mar 14, 2009,
#3
well, at least the intro.. drop D tuning 1/2 step down

e|------------------------------------------------0---------------------------|
B|-----------6-5------------------------------6----------------3------------|
G|-------------------------5--7----------------------------------------------|
D|-------0-------------7----------------0-----------------0-----------------|
A|-----------------0----------------------------------------------------------|
D|---0------------------------------8-----------------5----------------------|

e|------------------------------------------------0---------------------------|
B|-----------6-5------------------------------6------------------8----------|
G|-------------------------5--7----------------------------------------------|
D|-------0-------------7----------------0-------------------0---------------|
A|-----------------0----------------------------------------------------------|
D|---0------------------------------8------------------10---------------------|