#1
Okay well in the beginning of 'Welcome to the Jungle' by GnR, the intro is liek muted, I tried palm muting but that didn't work? So how do yuo do it...
...
#4
I have a delay on my amp but like I tap the beat and that's the delay but liek it's like a lighter sound.
...
#6
and are the notes this:

E-------------------------------------------------
A-------------------------------------------2-----
D-------------------4----4-2----2-0----0-------
G--4----4-2----2--------------------------------
B-----0-------0-------0------0-------0----------
E--------------------------------------------------

Or this:

E-------------------------------------------------
A-------------------------------------------------
D--------------------------------------2---------
G------------------4-4-4-2-2-2-0-0-----------
B--4-4-4-2-2-2--------------------------------
E-------------------------------------------------
...
#7
yo guys it is palm muted a bit. imo its just light palm muting with a delay pedal! easy!
#9
omg you noob, there's like a million tabs and tutorials all over the net! stop asking to be spoon fed and figure it out yourself.
Quote by HumBucker666
carrot skinned?
Handjob?


Quote by baconXcore
midget porn is the best. there's always carnival music playing.
#10
Quote by tay1392
omg you noob, there's like a million tabs and tutorials all over the net! stop asking to be spoon fed and figure it out yourself.

Is this guitar or World of Warcraft?
Strats & Seagulls
#11
Quote by xxBR34KD0WN
Is this guitar or World of Warcraft?


This is UG, unfortunately its both
2003 Music Man Axis Pacific Blue Burst