#1
it starts with something like
2x
e|--0----------0--------0---------0---------------------------------------|
B|-----0----------0--------0----------0-----------------------------------|
G|--------0----------0--------0----------0--------------------------------|
D|---------------------------------------------------------------------------|
A|---------------------------------------------------------------------------|
E|--0----------0--------0----------0---------------------------------------|
then
e|--7----------7--------7---------7---------------------------------------|
B|-----0----------0--------0----------0-----------------------------------|
G|--------0----------0--------0----------0--------------------------------|
D|---------------------------------------------------------------------------|
A|---------------------------------------------------------------------------|
E|--0----------0--------0----------0---------------------------------------|

e|--5----------5--------3---------3---------------------------------------|
B|-----0----------0--------0----------0-----------------------------------|
G|--------0----------0--------0----------0--------------------------------|
D|---------------------------------------------------------------------------|
A|---------------------------------------------------------------------------|
E|--0----------0--------0----------0---------------------------------------|

e|--2----------2--------0---------0---------------------------------------|
B|-----0----------0--------0----------0-----------------------------------|
G|--------0----------0--------0----------0--------------------------------|
D|---------------------------------------------------------------------------|
A|---------------------------------------------------------------------------|
E|--0----------0--------0----------0---------------------------------------|

e|--12-------12------12--------12---------------------------------------|
B|-----0----------0--------0----------0-----------------------------------|
G|--------0----------0--------0----------0--------------------------------|
D|---------------------------------------------------------------------------|
A|---------------------------------------------------------------------------|
E|--0----------0--------0----------0---------------------------------------|

thats how i think the song goes

my brother taught it to me but we dont know its name plz help


edit: btw its some kinda spanish tune playd on a nylon i think
Last edited by cryzhadry at Mar 17, 2009,
#2
it looks a lot like spanish romance (romanza). Not really correct, but very close
#4
Ya I'm with Nothing Else Matters a bit
Quote by bendystraw

"dOOd your guitars way out of tune."

me:"its in drop D idiot"

him:"ill drop D on your mom!"
#5
its deff. NOT nothing else matters......look up what i posted and decide for your self.
#6
i'd say Romanza, my friend plays it a lot, i don't kno how to play it myself but that looks roughly the finger positions, i think it has some different bass notes as well though
#8
Quote by mullet_318
it looks a lot like spanish romance (romanza). Not really correct, but very close

romance, correct.