#1
does anybody have guitar tabs for this song? i've looked just about everywhere and can't find them. thanks!
#2
Sounds like 2 guitars, I put the 2nd one between parenthesis...

e|------------------------------------------------------------------------------|
B|-------------------------5-7--7-5--7-8-------------------------------------|
G|-------------------------5-7--7-5--7-9-------------------------------------|
D|---7-----5---5h7---------------------------5---7------5---5h7-----------|
A|------7-----------------(3-5---5-3--5-7)----------7----------------------|
E|------------------------------------------------------------------------------|

e|---------------------------------------------------------------------------|
B|---------------------------------------------------------------------------|
G|---------------------------------------------------------------------------|
D|--7-7--7---7-7---7-------9-9---9---9-9-------------------------------|
A|--5-5--5---5-5---5-------7-7---7---7-7-------------------------------|
E|---------------------------------------------------------------------------|

e|---------------------------------------------------------------------------|
B|---------------------------------------------------------------------------|
G|-----5----4-----------------3times----------5---7---------------------|
D|--7----------7--5--7---------------------7----------7--5--7-----------|
A|---------------------------------------------------------------------------|
E|---------------------------------------------------------------------------|