#1
http://www.youtube.com/watch?v=14o70NFiDHQ&feature=related

Okay, anyways, looking through random vids on Youtube, I come across this, I think its a pretty cool riff and I'd like to learn it, but my video card or whatever isn't working ATM so I only hear audio on this video, and I'm not too good at transcribing by ear. If someone could tab the first half, the repeating descending phrase, that'd be awesome.

Sorry if this is the wrong forum to ask.
#3
Powertab would be nice if you've got it, if not just normal tab is fine, I don't have GP yet, saving for an amp is more important IMO.

BTW, I only want it tabbed to about :40 into the video, everything else is pretty much the same, 'cept for those sweeps at the end, but I couldn't play that.
Last edited by MadAudioMan at Mar 19, 2009,
#6
              E   E   E   E   E   E   E   E   
E||-------|--------------15------------------|
B||-------|------15--18------17--18--15--17--|
G||-------|--14------------------------------|
D||-------|----------------------------------|
A||-------|----------------------------------|
E||-------|----------------------------------|


   E   E   E   E   E   E   E   E      E   E   E   E   E   E   E   E   
--------------15------------------|----------------------------------|
------15--18------17--18--15--17--|----------17--18--15--17------15--|
--14------------------------------|------17------------------17------|
----------------------------------|--17------------------------------|
----------------------------------|----------------------------------|
----------------------------------|----------------------------------|


   E   E   E   E   E   E   E   E      E   E   E   E   E   E   E   E   
----------------------------------|--------------15------------------|
----------17--18--15--17------15--|------15--18------17--18--15--17--|
------17------------------17------|--14------------------------------|
--17------------------------------|----------------------------------|
----------------------------------|----------------------------------|
----------------------------------|----------------------------------|


   E   E   E   E   E   E   E   E      E   E   E   E   E   E   E   E   
--------------15------------------|----------------------------------|
------15--18------17--18--15--17--|----------17--18--15--17------15--|
--14------------------------------|------17------------------17------|
----------------------------------|--17------------------------------|
----------------------------------|----------------------------------|
----------------------------------|----------------------------------|


   E   E   E   E   E   E   E   E      E   E   E   E   E   E  E   E   
----------------------------------|---------------------------------|
----------17--18--15--17------15--|---------------------------------|
------17------------------17------|----------12--14--10--12--9--10--|
--17------------------------------|------12-------------------------|
----------------------------------|--12-----------------------------|
----------------------------------|---------------------------------|


   E   E   E   E   E   E  E   E      E   E   E   E  E   E  E  E   
---------------------------------|-------------------------------|
---------------------------------|-------------------------------|
----------12--14--10--12--9--10--|----------10--12--9--10--7--9--|
------12-------------------------|------10-----------------------|
--12-----------------------------|--10---------------------------|
---------------------------------|-------------------------------|


   E   E   E   E  E   E  E  E      E   E   E   E   E   E  E   E   
-------------------------------|---------------------------------|
-------------------------------|---------------------------------|
----------10--12--9--10--7--9--|----------12--14--10--12--9--10--|
------10-----------------------|------12-------------------------|
--10---------------------------|--12-----------------------------|
-------------------------------|---------------------------------|


   E   E   E   E   E   E  E   E      E   E   E   E  E   E  E  E   
---------------------------------|-------------------------------|
---------------------------------|-------------------------------|
----------12--14--10--12--9--10--|----------10--12--9--10--7--9--|
------12-------------------------|------10-----------------------|
--12-----------------------------|--10---------------------------|
---------------------------------|-------------------------------|


   E   E   E   E  E   E  S  S E      W                    W                 
---------------------------------|--------------------|--------------------|
---------------------------------|--------------------|--------------------|
----------10--12--9--10--9-10-7--|--------------------|--------------------|
------10-------------------------|--12----------------|--10----------------|
--10-----------------------------|--12----------------|--10----------------|
---------------------------------|--10----------------|---8----------------|


he ****ed up the last bit and due to the poor video/sound quality i'm not 100% sure if this is correct but it should be very near...
Last edited by Maxico at Mar 21, 2009,