#1
Hi,

I am new to this forum but have been using the Guitar pro site for ages. I am looking for the Tab or even just the chords of the following song:

In your Light, by Jon Allen.

You can listen to the song at the following link:

http://www.youtube.com/watch?v=CO24rbmZUgs

I would be extremley grateful for any assistance!

Thanks

Andy
#2
Yes I like the song too so I've done a bit of work on it. He sings it in Bb.
I'll just give you one verse and one chorus (all the others are the same) and if you listen to the song you'll get the timing (I think it's 75 bpm).
On some sites, I find that the chords written above the words sometime get out of register so I've written the chords directly in front of the word where it changes.
(Bb) When the (Gm) sun is gone (F) away (F)
(Bb)) In the (Gm) darkness of the (Eb) night (Bb)
(Eb) I don’t (F) have to look too (Gm) hard to (Eb) see
(Bb) That I’m (F) living in your (Bb) light

In your (F) light, in your (Gm) light
(F) There’s no (Eb) shadow there’s no (Dm) dark (Eb) ness (add another Eb or leave a bar gap)
(F) I don’t (Eb) feel alone with (Dm) out (Eb) you
(Bb) Cause I’m (F) living in your (Bb) light

Hope that helps.
The tune starts with the notes
(D) When (F) the (G) sun (F) has (D) gone (Bb) a.. (C) way
Last edited by DAVIDLYONS at Mar 28, 2009,
#3
It's close but not quite right. I can't put my finger on it. There's definitely a Bb instead of an F at the start of the second and third lines of the chorus, but other than that I can't really work anything else out.
I hope there's someone out there who can make a decent set of chords for this and a solo tab would be good.
Half Iago, half Fu Manchu, all bastard.
#4
I saw the live version and the tuning is standard 1 step down (that means DGCFAd). I'll tab it as standard tuning..


some chords:
Am/G: 3x2210
D9/F#:2x0210
C/Bb: x12010
G11:3x321x
Dm7: xx0211


intro:
e|-------------------------------------------------3---------------3-----3--------3----------------------|
B|--------------1-1-----1------------------------0---------------0h1--0--------0-----------------------|
G|-------0-----0--0h2-0------------------------0--3strums---0-----0--------0---4strums----------|
D|-------0h2---------------0h2p0--------------0---------------0h2--0--------0-----------------------|
A|---3--------------------------------3-----------x---------------x-----x--------x------------------------|
E|------------------------------------------3------3--------------3-----3----3---------------------------|


e|------------------------------------------------------------------------------0--------------------------------
B|-----------------1------------------1---------------1----------------1-----1------------------1--------------|
G|-------------0------------------0----------------2----------------2--------0------strum-----2--strum----|
D|---------2------------------2-----------------0----------------3-----------0h2---------------3-------------|
A|-----3------------------1---------------------------------------------------3-------------------x-------------|
E|-------------------------------------------2-----------------3----------------------------------3-------------|

Verse:
C G Am Am/G F
Dm7 G11 Am D9/F#
C-C/Bb-D9/F#-G11 C (G11) [2X]

chorus?
G E Am C E Am Fm
C C/Bb F F-C-Dm G11 C (G11)

verse, chorus..
Last edited by crmrz at Apr 2, 2009,
#5
OK so I got it wrong - but I tried - and I was fast with it!
But I've learnt it like that and it ain't getting changed! Done a solo too and made a CD for the lady in my life - and she's a happy bunny.
#6
Verse
A# F Gm D#
Cm Gm D#-D#m A#

Chorus
F Gm A#-A#maj7-Gm-D#m

A# A#7 Gm Gm7
I don't feel alone without you
D# F A#
Coz I'm livin in your light

Enjoy
#7
Ive written some chords if you serach in the U-G tabs, It isnt accurate to the song, but its easy and sounds just like the real thing, just you wont be able to play along side it, check it out I promise you they sound right