#1
Hello I've been looking everywhere on the net for a guitar tablature for Esaka from the video game King Of Fighters 96 (available on SNK's Neo Geo console). There are some people who have posted guitar videos of it on YouTube, but I can't find a tab.

Here's a link to one

http://www.youtube.com/watch?v=R7AskF1skbE

Here's how it sounds in the game (I'd like the tab for this)

http://www.youtube.com/watch?v=ifG376LtUiM

I would be incredibly grateful if anyone can transcribe this - or knows where to find the tab.

Thank you very much

Rich
#2
I don't mind paying some money if someone can do this. I'm not much good at working out the notes myself, so I'd be happy to pay.
#5
here's my (poorly rendered) tab for the chorus part of Esaka. I'm actually in the process of tabbing both the 96 and the 94 version of said song. Alas, This is actually the first time I'm trying to actually put on paper the whole thing (struming on the guitar and typing as we speak), so if there's any mistakes, bear with me please

Esaka (KOF 96 version)
Lead chorus
Tabbed by Dante (kyoblade@hotmail.com)
WORK IN PROGRESS
Tuning: EADGBe


e|-----------------------------------------------------------------------|
B|-----------------------------------------------------------------------|
G|--------------------------------------5-------------------------------|
D|-0-----0-7/-----3-5----7-5--7-------------8---7--3--5---3--5---|
A|------------------------------------------------------------------------|
E|------------------------------------------------------------------------|

e|------------------------------------------------------------------------|
B|------------------------------------------------------------------------|
G|------------------------------------------------------------------------|
D|-3------3---5---2---------------0------0-7/----3-5-----------------|
A|----5-----------------3-4----------------------------------------------|
E|-------------------------------------------------------------------------|

e|-------------------------------------------------------------------------|
B|-------------------------------------------------------------------------|
G|-----------------------7----3----5----3---5---3--------3-------------|
D|--7---5----7---9------------------------------------5-----------------|
A|-------------------------------------------------------------------------|
E|-------------------------------------------------------------------------|

e|-------------------------------------------------------------------------|
B|----------------------3---1-------1------------------------------------|
G|--5----2--2-3--5------------3----------------------------------------|
D|-------------------------------------------------------------------------|
A|-------------------------------------------------------------------------|
E|-------------------------------------------------------------------------|

Feel free to correct any mistakes, but I guess it's a pretty good start.
Last edited by Esaka at Oct 4, 2009,