#1
I'd like to get a tab or at least chords for the Therefore I Am song, I get Nervous in Cars. You can find the song here:
http://www.myspace.com/thereforeiam

I've got a bit, but I've never been good at determining chords or the like. Anyway, any help would be greatly appreciated.
Quote by Haedadru
I suggest nicola teslas powered radiation death ray mounted on an orange, top secret, neo-nazi flying swastika

What?
#2
I saw those guys with kingdoms like two weeks ago they were amazing. I think i worked out the basic song structure


INTRO
E---------------------------------------------
B---------------------------------------------
G---------------------------------------------
D--------8---8^9------8---8^9------8^9
A---------------------------------------------
D-0-0-----0------0-0----0-------0-0------


Chord Progression

E--------------------------------------
B--------------------------------------
G-----11------------------------------
D-----11 X16-- 9------- 11-------6-
A------9-------- 9 -X8---11 X8 --6-
D----------------9--------11-------6-

Outro

First Part
E----------------------------------------
B--0-2-0-4-0-2-0-4-0-2-0-4-0-22-
G---------------------------------------
D---------------------------------------
A----------------------------------------
D---------------------------------------

Second Part

E---------------------------------------
B--4-4^7 7^4-----------------------
G----------------4-4-4^6^4/3-------
D---------------------------------4-6--
A---------------------------------------
D---------------------------------------


^ hammer-on or pull off
/slide

Hope that helps to some degree I'm thinking of trying to work out some more of there songs maybe eleven seventeen next