#1
What song is this from?

Ive been playing this for a while now, and I dont remember what its from


e|-----------------------------------------------------|
B|-------2--------------------------------------0----|
G|-2/4--------4--2-------------------------2----2--|
D|---------------------4\2-0-0----------2----------|
A|-------------------------------------0--------------|
E|-----------------------------------------------------|


Its played fairly slow, I know its vague guys but its bugging me
Quote by xander307
that wasnt scary daryldom, it turned me on


Proud Canadian Eh?
#4
^ Well, theres this small variation the 2nd time:

e|-----------------------------------------------------|
B|-------2--------------------------------------0----|
G|-2/4--------4--2-------------------------2----2--|
D|---------------------4\2-0-0----------4----------|
A|-------------------------------------4--------------|
E|-----------------------------------------------------|


But I dont think the little variation is enough to help anyone recognize it

Thats all I remember. . .
Quote by xander307
that wasnt scary daryldom, it turned me on


Proud Canadian Eh?
#5
no clue.
We are the diamonds that choose to stay coal;
A generation born to witness
The end of the world

#8
It is deff Thunderstruck by AC/DC man.


Not really.
Quote by Tyler Durden
It's only after we've lost everything that we're free to do anything.

Erowid
#9
Sorta reminds me of the intro solo in Wish You Were Here, but I might be wrong.

Edit: except for the last arpeggio
Quote by Chrisiphone
Oh wow this is a guitar forum!
Quote by JacobTheMe

Karvid is sexy

Quote by KAS1981
Why is it that some folks quote praise from other members in their sig lines?
Its lame.