#2
standard tuning (strum chords)


Intro:
e|-------------12------------------12\------------------------------------|
B|---10-----------------10--------10\------------------------------------|
G|--------9---------9---------9--------------------------------------------|
D|---------------------------------------------------------------------------|
A|---------------------------------------------------------------------------|
E|---------------------------------------------------------------------------|

e|---0------0-------0-------------------|
B|---10----10------10-----------------|
G|---9------9-------11-----------------| (4)
D|---x------11------0-------------------|
A|---11-----0----------------------------|
E|-----------------------------------------|


verse:
e|---0------0-------0-------------------|
B|---10----10------10-----------------|
G|---9------9-------11-------------------|
D|---x------11------0-------------------| (4)
A|---11-----0----------------------------|
E|-----------------------------------------|

(I)
e|---0-------0-----0-----0----------------|
B|---3-------0-----0-----0----------------|
G|---4-------6-----7-----9----------------|(2)
D|---4-------6-----7-----9----------------|
A|---2-------4-----5-----7----------------|
E|-------------------------------------------|


Chorus:

e|---0--------0------0-------0--------0---------7-------0-------0--------|
B|---10------0------0--------10------10-------7-------10------0--------|
G|---9--------9------9--------9-------11-------7-------9--------9---------|
D|---11------9-------x-------11------0---------7-------11------9---------|
A|---0--------7------11------9------------------9-------0--------7--------|
E|-------------0------0---------------------------7----------------0--------|

Intro, verse, chorus (2)...

e|---0------0-------0-----0-------------|
B|---10----10------10-----10----------|
G|---9------9-------11----------11-----| (2)
D|---x------11------0-------------------|
A|---11-----0----------------------------|
E|-----------------------------------------|

verse from (I), chorus(2), intro(2)
Last edited by crmrz at Mar 27, 2009,