#2
Try getting a chord sheet for it and it should be easier to pick out the bass lines. Like most English Beat lines, one you break it down its simpler than you thought.

I'll post this over to the Tab forum with a redirect, so if any one from the bass forum has ideas they can find this thread and help you out.
#6
G|---------9-------99------9---------------14---------1414---------14--------------------|
D|----------------------------------------------------------------------------------------------|
A|---77-------7--------7---------1212---------12------------12---------------------------|
E|----------------------------------------------------------------------------------------------|

G|-----------12---------1212---------12-----------9------------7-----------------------|
D|-------------------------------------------------------------------------------------------|
A|--1010---------10------------10------------77-------7-55--------5...etc------------|
E|--------------------------------------------------------------------------------------------|