#1
I'm pretty surprised that i couldn't find this song on here... anyone able to tab it?
There's a special sex move I do called the Charizard.
It's where you light the girls pubes, then put it out with your cum and run around the room flapping your arms screaming, "You don't have enough badges to train me!"
#2
up to 0.56

standard 1/2 step down

main riff: 3x (on the last one don't play what's in parenthesis)
e|-----------------------------------------------------------------------------------------------------|
B|-----------------------------------------------------------------------------------------------------|
G|-----------------------------------------------------------------------------------------------------|
D|-----------------------------------------------------------------------------------------------------|
A|--15-14---------------15-14-----------------15-14-121112-14-15--14-----------------------|
E|--13-12-00000000-13-12-00000000-13-12-10-9-10-12-13-12-000000000000----|

e|---------------------------------------------------------------------------------------------------------------|
B|---------------------------------------------------------------------------------------------------------------|
G|---------------------------------------------------------------------------------------------------------------|
D|---------------------------------------------------------------------------------------------------------------|
A|--15-14---------------15-14-----------------15-14-121112-14-15-14-1211-12-14-15-(14----------|
E|--13-12-00000000-13-12-00000000-13-12-10-9-10-12-13-12-10-9-10-12-13-(12-000000)
|


e|---------------------------------------------------------------------------|
B|---------------------------------------------------------------------------|
G|---------------------------------------------------------------------------|
D|---------------------------------------------------------------------------|
A|------------9\-------------10\-------------5----------4-------------------|
E|-0-0-0-0--7\--0-0-0-0--8\-----0---0-3--0---0-2-------------------|


e|---------------------------------------------------------------------------|
B|---------------------------------------------------------------------------|
G|---------------------------------------------------------------------------|
D|---------------------------------------------------------------------------|
A|------------9\-------------10\-------------5----4-------------------------|
E|-0-0-0-0--7\--0-0-0-0--8\-----0---0-3---2-------------------------|
Last edited by crmrz at Mar 27, 2009,
#3
Thanks man, appreciated
There's a special sex move I do called the Charizard.
It's where you light the girls pubes, then put it out with your cum and run around the room flapping your arms screaming, "You don't have enough badges to train me!"