#1
Hi,

I am new to guitar and I really want to learn this song. It is by a local rock band whom are no longer together (sadly). Glory Nights are at the top of my list of favourite bands and if you have not heard of them check them out!!

Please have a listen to this song and if you like it, I would really appreciate you either Tabbing it or writing out the chords.

The song is already up on youtube as a video, so please follow the link and have a listen.
Glory Nights - Whispers In The Morning

Thanks.

PS.
You will be the first to put this tab on the internet (I've looked EVERYWHERE)

If anyone likes the band and wants to hear more from them, check out these songs
- Regrets
- It's better faster
- The Lines Are Dead
- Gettin' D
- Between Lions
Last edited by blarue09 at Mar 29, 2009,
#5
yea ill work on it i just wish i could find a live version that always makes it easyer but yea im working it out
#6
yeah that would help a lot, although I don't think they have ever played that song live.

Quote by Hairball135
yea ill work on it i just wish i could find a live version that always makes it easyer but yea im working it out
#14
Glory Nights were a local Kelowna, BC band. The lead singer is now in a band called Mapping the Escape from Edmonton, AB I think.
#17
Quote by Hairball135
im working on it but its hard cause i want to be sure


hey, anything done on this yet? not to sound pushy. i just did a search and nothing came up.
#18
this is my version of the intro and verse..I hope somebody can come up with a better one..

D Tuning (DADF#Ad)

intro & verse:

d|-----0--------0--0--------0--0------0---0----------------|
A|-----5--------5--5--------5--5------5---5----------------|
F#|---3--------3--3--------0--0------0---3----------------|
D|-----0--------5--4--------4--5------5---5----------------|
A|-----0--------0--0--------2--2------x---x-----------------|
D|-----0--------0--0-------------------5---5-----------------|

d|-----0--------0--0--------0--0------0---0----------------|
A|-----5--------5--4--------5--5------5---5----------------|
F#|---3--------3--3--------0--0------0---3----------------|
D|-----0--------5--4--------4--5------5---5----------------|
A|-----0--------0--0--------2--2------x---x-----------------|
D|-----0--------0--0-------------------5---5-----------------|

then he plays this progression: A Bm G

A: 777777
Bm: x24050
G: 555555

(these chords may have diferent positions)....