#1
im looking for a repeated lick or riff.. that i can use while soloing. mainly a rock solo. can someone help me out?
#2
|-10p7----7-10p7-10p7----7-10p7-10p7----7----|
|------10-------------10-------------10------|
|--------------------------------------------|
|--------------------------------------------|
|--------------------------------------------|
|--------------------------------------------|


In B Minor Pentatonic, but it can be easily transposed to other keys.

Also, I believe this is in the wrong section. Try Musician Talk next time.
#3
-10-7-10-7------10-710-7------10-710-7------10-710-7------|
|-------------10-7------------10-7------------10-7------------10-7-------------|
|---------------------------------------------------------------------------------------------------|
|---------------------------------------------------------------------------------------------------|
|---------------------------------------------------------------------------------------------------|
|--------------------------------------------------------------------------------------------------|
Quote by dm1925
texas ftw!
we're saving the world, one zombie at a time


Quote by ThePastRecedes
Yo Bob Dylan, I'm really happy for you an I'm gonna let you finish, but Jimi Hendrix had one of the best versions of All Along the Watchtower of all time!
Last edited by zakky_s at Jun 28, 2009,