Tab Request: John Mayer- Slow Dancing In A Burning Room (Two-Rock Signature Amp Demo)

#3
Hey dude, here you go:

E ----------------(12)--------------------------------------
B -12/14----------(12)--------------------------------------
G ----------11/13--13\11p9-----------(9)-------------6--4---
D -----------------------------------(9)-----------7----6---
A ------------------------------9/11--11\9-p7p0-------7-----
E --------------------------------------------------------0- 


I play it nearly every time I am warming up, lotsa fun.
Takamine EG341SC
Godin Freeway Classic -> Boss TU-2 -> Fulltone OCD -> MXR M173 -> Boss RC-20XL -> Traynor YCV50 Blue
Last edited by michaelscofield at Jun 30, 2009,
#4
Quote by michaelscofield
Hey dude, here you go:

E ---------------(12)------------------------------|--------------------
B -12/14----------(12)-----------------------------|--------------------
G ----------11/13----13\11p9----------(9)----------|----------6--4------
D ----------------------------------------(9)------|-----7--- --6-------
A -------------------------------9-/11----11\9-p7--|-p0---------7-------
E -------------------------------------------------|-----------0--------


I play it nearly every time I am warming up, lotsa fun.


Hmm, I don't think this is it Thanks anyways...
#5
That's definitely it, dude, but that's just the part where he improvises, at about 0:18 of here: http://www.youtube.com/watch?v=iSM3FL7zUdw The tab for the SLIABR riff itself can be found on this site.
Takamine EG341SC
Godin Freeway Classic -> Boss TU-2 -> Fulltone OCD -> MXR M173 -> Boss RC-20XL -> Traynor YCV50 Blue
#6
ok thanks, will look into it... but if anyone has full tabs... would really appriciate it.
#9
Quote by mysterons23
http://dl.dropbox.com/u/1262033/two_rock_slow_dancing_demo_by_rayson.pdf


this is the most accurate you will probably find



LIKE A BOSS!!! seriously mate you are the king!! thank you so much for posting that pdf, been struggling to figure out how he got that raking sound for ages and now i feel pretty stupid for not figuring it out... but still, thank you! =]
#10
Pumpkin_Howie Hey man, I know it's an old post, but do you happen to still have the PDF? I cant seem to find it, and the link is broken..