#2
I Love your username. I can try to tab it if I can get it translated but I'll try tomorrow.
#3
This is what I got so far, I can't figure out what's after

19-0-0-18-0-0-17-0-0-15-0-17-0-18-0- (X3) on High E
#4
i think it's more like this:


      S   S S  S   S S  S S  S S S  S S S  S S   
E||--19p-15-0-18p-15-0-17-0-15-0-0-17-0-0-15-0-||
B||--------------------------------------------||
G||--------------------------------------------||
D||--------------------------------------------||
A||--------------------------------------------||
E||--------------------------------------------||
Je parle français, excusez mon language inaproprié quand je m'exprime en anglais.

#6
S S S S S S S S S S S S S S S S
E||--19-12----18-12----17-12-15-12----17-12----18-12-|
B||----------12---------12----------------12--------12--------|
G||----------------------------------------------------------------|
D||----------------------------------------------------------------|
A||----------------------------------------------------------------|
E||----------------------------------------------------------------|


S S S S S S S S S S S S S S S S
E||--19-12----18-12----17-12-15-12----17-12----15-12-|
B||----------12---------12----------------12---------12-------|
G||----------------------------------------------------------------|
D||----------------------------------------------------------------|
A||----------------------------------------------------------------|
E||----------------------------------------------------------------|

S S S S S S S S S S S S S S S S
E||--19-12----18-12----17-12-15-12----17-12----18-12-|
B||----------12---------12----------------12--------12--------|
G||----------------------------------------------------------------|
D||----------------------------------------------------------------|
A||----------------------------------------------------------------|
E||----------------------------------------------------------------|


S S S E S E S S S S Q
E||--12-10-7-10~--7-6--7-6-5-0-3~----|
B||--------------------------------------------|
G||--------------------------------------------|
D||--------------------------------------------|
A||--------------------------------------------|
E||--------------------------------------------|