#5
I hate to be "that guy" but if somebody can tab that fro me I'd reall appreciate it so get r dun asap =D
#7
since it's pointless for me to keep bumping, how about if anyone thinks they can tab this for me pm me?
Quote by crazysam23_Atax
"Trans Princess". You're bitching over nothing, and you know it.
#8
bump
Quote by crazysam23_Atax
"Trans Princess". You're bitching over nothing, and you know it.
#9
ok so heres what i came up with...you can listen to it on my profile otherwise use that link he gave us:
--7---7---------7----------------------------7------------10-----10----------5---7---8---5-----
--8------8------7---7h8--7h87-------------------8---------7---------7--------5-----------------
--9--------9----7----------------7-------9----------9-----7------------7-----5-----------------
--9-------------9------------------------9----------------9------------------7-----------------
--7-------------x------------------------7----------------x------------------7-----------------
----------------7-----------------------------------------7------------------5-----------------

--7--------------------------------7---7--------------------7-----------7----7---------7tr10--------
--7-------------/5--3--3--3\5------8------8--------7tr8-------7---------8-------8---------------------
--7------9------/4--4--2--2\4------9----------9------------------7------9----------9----------------
--10-----9-------------------------9------------------------------------9--------------------------
---------7-------------------------7------------------------------------7------------------------
-----------------------------------------------------------------------------------------------
                                                        ***
------------5---7--8---5-----7-----3-----------<5>-----------------------------------------------------
--------7---5----------5-----7-----5---------<5>----------------------------------------------------------
------7-----5----------5-----7-----4-------<5>---------------------------------------------------------
--10--------7---------------10-----2-----<5>-----------0--0h2-2--2-2-0-2/5-----0-0h2--0-----------------
------------7----------------------2---------------0h2----------------------0h2---------2-1-0------2------
------------5---------------------------------------------------------------------------------3--0-0-------

-----------------------------------------------------------------------------------------------
-----------------------------------------------------------------------------------------------
-----------------------------------------------------------------------------------------------
-----0-0h2-2-2-2-0-2/5/7------0-0h2-0-----------------------0-2-2-2-2-0-2/5-----0-0h2--
-0h2----------------------0h2---------2-1-0--2--2--2--2---2------------------0h2----------
---------------------------------------------0--0--0--0---------------------------------------

--------------12-12-12-12-10-10------------------------------------------------------------
--------------------------------12-12---------------------------------------------------------
-----------------------------------------------------------------------------------------------
-0---------------------------------------0-2-2-2-2-0-2/5-----0-0h2-0----------------------------
---2-1-0-----------------------------0h2------------------0h2-------2-1-0------------------------
----------3-0--------------------------------------------------------------3^-0---------

so yea...when you see the ***, thats the part where another guitar plays an octave up
h=hammer on
tr=trill
<5>=natural harmonic
/=slide

if you have any questions just message me...hope this helps
i could play like eric clapton if i had his gear...anyone could
#10
thank you i love you man!!!
Quote by crazysam23_Atax
"Trans Princess". You're bitching over nothing, and you know it.