#1
ive got an iron maiden song stuck in my head and i need you to help me figure it out

all i can remember is the opening riff

e|--------------------------------------------------------------|
b|-----12-----10-------------10-----------------------------|
g|---------------------12-------------12-----11-------------|
d|-----------------------------------------------------12-----|
a|-------------------------------------------------------------|
E|-------------------------------------------------------------|

e|------------------------------------------------------------||
b|------------------------------------------------------------||
g|---------------------------------------------12-----9-----||
d|-------------12-------------10-----12-------------------||
a|-----12-------------12-----------------------------------||
e|-----------------------------------------------------------||

edit: i think it reapeats 4 times
✠ ☠ ✠
RIP Ronnie James Dio


Fendi Shoes is actually extremely advantageous.
#2
That's nice but what are the note-length values? For all I know they could be 32nd note triplets.
#4
I was gonna say Fear of the Dark as well.
and i sit and wonder, falling under .
#7
sounds a bit like ''Hallowed be thy name'' to me =S
Last edited by DeaThrash at Jun 30, 2009,
#8
It doesn't sound like any Maiden song I've heard. Maybe I'm just not playing right.
Quote by MakinLattes
dwelling on past mishaps is for the weak. you must stride into the future, unabashed and prepared to fuck up yet again.
#11
Quote by CFH82
No Prayer For The Dying?


This, definitely
Quote by SlackerBabbath
This from a country who're trying to make up for being late for the last two world wars by being really early for the next one?


Quote by konfyouzd
i think this is my favorite post of the day

Quote by Benguitar2
You ****ing pwn.

Awesome, dude, just awesome.
#14
Yeah it's either Fear of the Dark or No Prayer for the Dying....they both are really really similar
E-Married to Eddie4President

ARMENIAN


Quote by VANGELIS!
Ya, my mom walked in on me taking a **** into my coffee mug when I was 23. There was a spider in the bathroom and I was too scared to go in


Quote by angusfan16
I'll join. I have a vagina.
#15
so are most Iron Maiden songs realy, they definitetly have a formula for the bulk of their material
GENERATION 10: The first time you see this, copy it into your sig on any forum and add 1 to the generation. Social experiment.
#16
ahh yeah I was totally thinking "lol wut a tab from a tonefeaf 12 year old of fear of the dark?" but now that I hear the no prayer for the dying I can hear it.
RIP Bernie Mac
RIP Michael Jackson

FUCK YOU DIME!

Quote by Cobain_Is_King
Get 'Cliff is Angry. So so angry' on your ass.

Edit: Then take pictures and send me them.



Genetically engineered and raised by wolverines DAVE MUSTAINE...