#1
Solo:

---------13------------------------------13---------------
-------13--16(18)~-(18)--13-13~--------13--16(18)--13-13~-
-15(17)----------------15--------15(17)----------15(17)---
----------------------------------------------------------
----------------------------------------------------------
----------------------------------------------------------

---------13----------------13----------------13--------------------
-------13--16(18)~-------13--16(18)~-------13--16(18)~-16p13--13~--
-15(17)------------15(17)------------15(17)-----------------15(17)-
-------------------------------------------------------------------
-------------------------------------------------------------------
-------------------------------------------------------------------


---------13---------13---------13------------------13--------13-------------
-------13---------13---------13--16(18)(18)~-----13--------13---16(18)(18)~-
-15(17)-----15(17)-----15(17)---------------15(17)----15(17)----------------
----------------------------------------------------------------------------
----------------------------------------------------------------------------
----------------------------------------------------------------------------

---------13-------16p13------16p13-------------------13--------13------------
-------13---16p13------16(18)-----16(18)(18)~------13--------13--16(18)(18)~-
-15(17)--------------------------------------15(17)----15(17)----------------
-----------------------------------------------------------------------------
-----------------------------------------------------------------------------
-----------------------------------------------------------------------------

---------13---------13------------------13-----------------
-------13---------13--16(18)(18)~-----13---16(18)(18)(18)~-
-15(17)-----15(17)---------------15(17)--------------------
-----------------------------------------------------------
-----------------------------------------------------------
-----------------------------------------------------------

---------13--------13--------13--------13----------------------
-------13--------13--------13--------13---13-----13-----13-----
-15(17)----15(17)----15(17)----15(17)-----15(17)-15(17)-15(17)-
---------------------------------------------------------------
---------------------------------------------------------------
---------------------------------------------------------------


The song is Highway Chile by Jimi Hendrix.
This solo is seriously killing my hands. At first look, it didnt look to hard, but it is lol. Is there a trick to doing things like this, or do I just need to build hand strength?
#2
Personally id use mainly my index finger as a barre on the 13th fret then use the other 3 for the other higher frets, if you use two finger each time you need a bend.

But thats me, and theres probably more than one way to do it
Gibson 58 RI VOS Custombuckers
Mesa Lonestar Special 2x12
#3
I do it how Jimi likely did it.

Improvising it along the lines of what he originally did.
THE FORUM UPDATE KILLED THE GRADIENT STAR

Baltimore Orioles: 2014 AL Eastern Division Champions, 2017: 71-73
Baltimore Ravens: 2012 World Champions, 2017: 1-0
2017 NFL Pick 'Em: 10-5