#1
Like me, I'm sure a lot of people have watched the Fretkillr videos on YouTube. I'm particularly interested in the Acoustic Blues in E video and trying to figure out how he's able to make those fast runs sound so great. In this video:

http://www.youtube.com/watch?v=Zy6GAEZZES8

at about 39 seconds in he does one of these runs and I'd really like to try to nail it. I was able to slow it down to the get the notes and have this:


E------0-----3-----0-----0-------------------------------------
B --3-----0-----------3-----0-----3--0-----3-------0-------
G ------------------- ---------------------2-------2-----3---2--
D --------------------------------------------------------------
A--------------------------------------------------------------
E-------------------------------------------------------------

E------------------------------------------------------------
B------------------------------------------------------------
G--0------2-------0--1-------------------------------------
D------2------2----------2--0-------------------------------
A--------------------------------2--1--0-----------2--------
E------------------------------------------3-/4--------3--0--


What I can't figure out is how to best finger this to get the kind of speed he is getting. Although it sounds to me like he's hitting every note, I assume he must be doing some hammer ons and pull offs but can't really figure out where he's putting them. Or maybe he is actually hitting each note?

I realize I'll have to start off slow and build up in speed but would like to first make sure that I'm fingering this properly as I practice.

So, I guess my question is, is anyone here able to play this as fast as he is and if so, how are you doing it!

Thanks
Gert

EDIT: Sorry all. Have fixed the link.
Last edited by gfrobe at Jul 3, 2009,
#2
    3        3        3           3      2  3    2     3   2      
E------0-----3----0-----0------------------------------------|
B --3-----0----------3-----0-----3----0-----3-------0--------|
G ---------------------------------------2-------2-----3---2-|
D -----------------------------------------------------------|
A------------------------------------------------------------|
E------------------------------------------------------------|

       2  3   2      1   2       2  1      3       1   2
E------------------------------------------------------------|
B------------------------------------------------------------|
G--0------2-------0--1---------------------------------------|
D------2------2----------2--0--------------------------------|
A--------------------------------2--1--0-----------2---------|
E------------------------------------------3-/4--------3--0--|
That's how I'd do it

http://www.youtube.com/watch?v=Zy6GAEZZES8 <-I think that's the video TS is talking about and **** that guys fast.
.
Last edited by Nietsche at Jul 3, 2009,
#4
that link is to post new thread...?

are you confused about fingering with your fretting hand or picking technique with your strumming hand
The only 6 words that can make you a better guitarist:

Learn theory
Practice better
Practice more
#5
Quote by doive
that link is to post new thread...?

are you confused about fingering with your fretting hand or picking technique with your strumming hand


Sorry, have fixed the link. I think my question is really about both hands. I've actually been fingering it pretty much as Nietsche has noted above but wondering if Fretkillr is actually picking each note with his right hand or whether he's doing a of of pull offs and hammer ons. To me it sounds like he's hitting each note but when I try to do that, it doesn't seem like its going to possible for me to ever reach that speed. And when I do it with hammer on and pull offs, they are really noticeable so the whole thing doesn't sound as clean as Fretkillr.