#1
I made a really cool synth thing on guitar pro from the D blues scale like this:

    E  E  E  E  E  E  E  E     E  E  E  E  E  E  E  E   
--------------------------|--------------------------|
--------------------------|--------------------0--3--|
-----------------2--0-----|--------0--2--1--2--------|
-----------------------3--|--0--3--------------------|
--------------------------|--------------------------|
--------------------------|--------------------------|


  E  E  E  E  E  E  E  E     E  E  E  E  E  E  E  E   
--------------------------|--------------------------|
--6--3--0-----------------|--------------------0--3--|
-----------2--1--2--0-----|--------0--2--1--2--------|
-----------------------3--|--0--3--------------------|
--------------------------|--------------------------|
--------------------------|--------------------------|


  E  E  E  E  E  E  E  E    
--------------------------||
--6--3--0-----------------||
-----------2--1--2--0-----||
-----------------------3--||
--------------------------||
--------------------------|||


at a tempo of 200.

what chord/chord progression can I use over this for guitar?
#3
Quote by JayLacelle
1-4-5 perhaps?


All you need is some oneeeeeee, fouuuuuuur, fiiiiiiiiveeee ...

Sorry, had to say it. The Cat Empire ?

But yeah, what he said. 1-4-5.
Quote by Dog
You must be able to tremolo pick like a mad man.

Quote by RinestoneCowboy
How the **** do you jerk off?


Oh yeah: I'm a French-Canadian so excuse my English .