#1
I uploaded it, i think tomorrow its online, but maybe you guys can say what you think about it !

song:
12 stones - broken road
link:
http://www.youtube.com/watch?v=IwYRny-EwpE

tab (how you see it online, i think tomorrow, when you search for it!) :
(this is without tabs, spacebars and enters i think!)
No-one tabbed this song, so i gave it a try! Please rate and enjoy!


(find out strumming in chrorus by urself)


In this tab, it is the LEAD GUITAR!


Intro:

e|-----------|------0-------------------------------0-------|
B|-----------|o------0---------0----------4---------0------o|
G|-----------|-----4----------4-4--------6-6-------4--4-----|
D|-2h3p2p1s2-|----2----2/4---4----4/6---6---6\4---4----0----|
A|-----------|o--0----------2----------4---------2---------o|
E|-----------|----------------------------------------------|

Verse 1:
e|--0---(0)---0----0----(0)----0------|
B|--0----5----0----0-----5-----0------|
G|--1----6----1----2-----6-----4------|
D|--2----6----2----2-----6-----4----4-|
A|--2----4----2----0-----4-----2----4-|
E|-(0)-------(0)--------------------2-|

Put on a little distortion!

Chorus:
e|------------------|----------------------------------|
B|------------------|----------------------------------|
G|------------------|-2---6-4-2---4---2---6-4-2-5-7-4~-|
D|-444444444444xxxx-|-2-2-6-4-2-2-4-6-2-2-6-4-2-5-7-4~-|
A|-444444444444xxxx-|-0-2-4-2-0-2-2-6-0-2-4-2-0-3-5-2~-|
E|-222222222222xxxx-|---0-------0---4---0--------------|
....····''''

Play Clean:

e|-------|------0-------------------------------0-------|
B|-------|-------0---------0----------4---------0-------|
G|-------|-----4----------4-4--------6-6-------4--4-----|
D|-2s4s1-|----2----2/4---4----4/6---6---6\4---4----0----|
A|-------|---0----------2----------4---------2----------|
E|-------|----------------------------------------------|

Verse 2:
e|--0---(0)---0----0----(0)----0------|
B|--0----5----0----0-----5-----0------|
G|--1----6----1----2-----6-----4------|
D|--2----6----2----2-----6-----4----4-|
A|--2----4----2----0-----4-----2----4-|
E|-(0)-------(0)--------------------2-|

Chorus: Bridge:
e|------------------|-------------------------------|------------------------------------------------------------------|
B|------------------|-------------------------------|------------------------------------------------------------------|
G|------------------|-2---6-4-2---4---2---6-4-2-5-7-|-9\----------5-5-55-5-7-7-77-7-9\----------5-5-55-5-5-5-55-5-4~~~-|
D|-444444444444xxxx-|-2-2-6-4-2-2-4-6-2-2-6-4-2-5-7-|-9\-2-2-22-2-5-5-55-5-7-7-77-7-9\-2-2-22-2-5-5-55-5-5-5-55-5-4~~~-|
A|-444444444444xxxx-|-0-2-4-2-0-2-2-6-0-2-4-2-0-3-5-|-7\-2-2-22-2-3-3-33-3-5-5-55-5-7\-2-2-22-2-3-3-33-3-3-3-33-3-2~~~-|
E|-222222222222xxxx-|---0-------0---4---0-----------|----0-0-00-0----------------------0-0-00-0------------------------|
....····''''

Chorus:
e|------------------------------------------------|
B|------------------------------------------------|
G|-2---6-4-2---4---2---6-4-2-5-7-4444444444444444-|
D|-2-2-6-4-2-2-4-6-2-2-6-4-2-5-7-4444444444444444-|
A|-0-2-4-2-0-2-2-6-0-2-4-2-0-3-5-2222222222222222-|
E|---0-------0---4---0----------------------------|

e|------------------------------------|
B|------------------------------------|
G|-2---6-4-2---4---2---6-4-2-5-7-13~~-|
D|-2-2-6-4-2-2-4-6-2-2-6-4-2-5-7-x----|
A|-0-2-4-2-0-2-2-6-0-2-4-2-0-3-5-11~~-|
E|---0-------0---4---0----------------|

Outro:
Strum this:
e|-----------|------0-------------------------------0-------|--0~~~--|
B|-----------|o------0---------0----------4---------0------o|--0~~~--|
G|-----------|-----4----------4-4--------6-6-------4--4-----|--9~~~--|
D|-2h3p2p1s2-|----2----2/4---4----4/6---6---6\4---4----0----|--9~~~--|
A|-----------|o--0----------2----------4---------2---------o|--7~~~--|
E|-----------|----------------------------------------------|-(0)~~~-|
Last edited by Pking Lamer at Jul 9, 2009,