#1
confused about the tab part in fade to black right before the solo (its also the background to the solo) the ending solo btw

sl P.M.-|
|-----------------------|--------------------------------|
|-----------------------|--------------------------------|
|-----------------------|--------------------------------|
|-------/-4-------2/5---|-(2/5)--4-------2---------------|
|-*2/5------------------|--------5-------4--2/5--4-------|
|-----------------------|------------------------5---2/5-|
*Gtr. II indicated to left slash in TAB

i dont get this ^ can someone just tell me how id play that like write it out in words


sl P.M.-|
|---------------------|------------------------------|
|---------------------|------------------------------|
|---------------------|------------------------------|
|-------/-4-------2/5-|-(2/5)-4-------2--------------|
|-4-------------------|-------5-------4--2/5--4------|
|-5-------------------|-----------------------5--2/5-|

sl P.M.-|
|------------------------|------------------------------|
|------------------------|------------------------------|
|------------------------|------------------------------|
|--------/-4-------2/5---|-(2/5)-4-------2--------------|
|-2----------------------|-------5-------4--2/5--4------|
|-3----------------------|-----------------------5--2/5-|

sl P.M.--|
|-------------------------|----------------------------|
|-------------------------|----------------------------|
|-------------------------|----------------------------|
|---------/-4-------2/5---|-(2/5)-7--------5--4--2--4--|
|-4-----------------------|-------5--------4--2--------|
|-5-----------------------|----------------------5--2--|
Last edited by basically_crazy at Jul 10, 2009,
#2
o_q I have deduced.

You sir, are a victim of bad tabbing.

Or at least spacing. Otherwise it's just basic slides.
Soon, death metal's drums will be so fast only computers will be able to listen to it.

94? Not bad. It shall improve >=)

Who's looking for hosting? My/My Friends site will be up and running soon, looking for customers - PM me if interested.
#4
Quote by Ninjake
o_q I have deduced.

You sir, are a victim of bad tabbing.

Or at least spacing. Otherwise it's just basic slides.


This, but it is not slides. It is played by two guitars on the song, but whoever tabbed it put it into one part. So you would play the notes to the left of the slash or to the right, not both, whatever side you choose.

Edit: The notes that have no slashes in between them would be played by both guitars.
Because deep down, I know you want to:

My Youtube Channel

Constructive criticism is always welcomed.
Last edited by Mr. B. at Jul 10, 2009,
#5
Quote by Ninjake
o_q I have deduced.

You sir, are a victim of bad tabbing.

Or at least spacing. Otherwise it's just basic slides.


its not my tab, its the one with like 900+ ratings at five stars
the little thing just made it like that when i copied and pasted it
i just wanna know how that would be played cuz its confusing me with "gtr 2 indicated" blah blah idk

edit: just saw above post...thanks
#6
seriously, on the tab to look, it's plain slides, slide from 2 to 5 for example, I don't think it would sound so good if you play those notes on 2 guitars if I get what you mean which I prob not do xD
#7
Quote by Mr. B.
This, but it is not slides. It is played by two guitars on the song, but whoever tabbed it put it into one part. So you would play the notes to the left of the slash or to the right, not both, whatever side you choose.

Edit: The notes that have no slashes in between them would be played by both guitars.



If that is the case, find a new tab, thats just ridiculous.

Hehe, quoted the wrong person
Soon, death metal's drums will be so fast only computers will be able to listen to it.

94? Not bad. It shall improve >=)

Who's looking for hosting? My/My Friends site will be up and running soon, looking for customers - PM me if interested.