#1
||-------------------------------------|-------------------------------------|
||o-----8h10p8-------8h10p8------------|-----8h10p8-------8h10p8-------------|
||--7h9--------9-7h9--------9-9p7-10p7-|-7h9--------9-7h9--------9--9p7-10p7-|
||-------------------------------------|-------------------------------------|
||o------------------------------------|-------------------------------------|
||-------------------------------------|-------------------------------------|


does anyone have an example of a lead like this? just a simple lead done on two strings, thats repeated over a chord progression?
#5
  Q    E  E  E  E    E                       E      W                 
-------------------------------------------------|-------------------|
-------------------------------------------------|-------------------|
-------------------------------------------------|-------------------|
-------------------------------------------------|-------------------|
-------------2--4--4g7p----------------------5~--|--L----------------|
--2----4--5--------------------------------------|-------------------|


                                                                       slide    
  Q    E  E  E  E    E   E      W                   Q    E  E  E  E    E   E    
-----------------------------|-------------------|-----------------------------|
-----------------------------|-------------------|-----------------------------|
-----------------------------|-------------------|-------------6--7--7g9p--7~--|
-------------4--6--6g9p--7~--|--L----------------|--6----7--9------------------|
--4----5--7------------------|-------------------|-----------------------------|
-----------------------------|-------------------|-----------------------------|


Excerpt from Heart's "Crazy On You". Moves up strings but the line is generally only on two strings.
breaking hearts
&
breaking guitars
#6
Thanks for the help

any examples from more modern metalish bands? (not that theirs anything wrong with Zep, or heart, just for the sake of diversity)