#1
On Iris you always see it tabbed as John Rzeznik playing B, A, G in his BDDDDD tuning but live it looks like he's playing the intro chords for the chorus, is this right?
#2
these are the chords i play

intro

e|---0---0---0---0--------|
B|---3---2---3---3--------|
G|---2---2---0---0--------|
D|---0---0---5---4--------|
A|---2---2---5---5--------|
D|---x---x---x---x--5-4-0-|


verse and chorus

e|---0---0---0--|
B|---3---3---3--|
G|---2---2---0--|
D|---0---0---5--|
A|---2---0---5--|
D|---x---x---x--|
Quote by SOADrox429
Dude... I want to date a drum major. I bet they could fuck in time to Tool.