#1
(I HOPE THIS IS THE RIGHT FORUM)

well there's this solo in the song at about 3:33
I've not been able to figure it out by ear
and i haven't found a tab that sounds accurate..
can someone please help?

thanks
Srinivas
#2
This should be in Tab Talk, but the 22 times 5-star rated Guitar Pro tab sounds right to me.
#3
||-----------------------------|--------------------------------------------||
|--------------------13-12----|------------15------------------------------||
|-------10-------9------------|------16-17-------------17--16--17----------||
|----------9h11---------------|--------------------------------------------||
|--7-8------------------------|--------------------------------------------||
|-----------------------------|--------------------------------------------||

 ~~~~~~
|----------------------------------------------------------------------17-18-19-||
|----------------------------------------------16-17-18-19-18-17-18-19----------||
|----------------------14-16-17-19-17-16-17-19----------------------------------||
|-------17-15-14-15-17----------------------------------------------------------||
|-------------------------------------------------------------------------------||
|-------------------------------------------------------------------------------||
New To Town With A Made Up Name

In The Angel's City

Chasing Fortune And Fame
09/03/2012
#4
well there the rest of the song is PERFECTLY tabbed, but that particular solo...i dunno...sounds a little off to me...

EDIT: @AlterBridge:Yes! That sounds damn good!Thanks!
Last edited by TubeAmp89 at Jul 14, 2009,