#1
Here's a game where everybody posts a metal riff and you have to guess from what song it is. Then you can post your riff etc.


-------------------------------------||
-------------------------------------||
-------------------------------------||
--9----------------9-----------------||
--7------10p-7-----7------10p-7-5h-7-||
--0--x-x-------x-x-0--x-x------------||
Quote by razorback91
Im sorry, I just don't see how you could argue that hardcore isn't metal. That just seems arrogant to me.

Yes, its its own kind of metal, but its still metal.
#3
Quote by Cianyx
Isn't this like Guess the Tab?


But with metal!

Can I post yet or does yours has to be guessed first?
#4
Do the "x"'s indicate palm mutes or complete mutes?
R.I.P. Ronnie James Dio. Supplied amazing music to both me and my mother.

He will be missed.
#8
Okay, is it alright if I make a new rule? If no one get's it right for 5 turns, you can post you're own. I don't know the song, and don't want this thread to die, so...

|--------------------------------------|
|--------------------------------------|
|--------------------------------------|
|--------------------------------------|
|-----------7h8------8h10--------------|
|-00-0-00-0-----00-0------00-0-3-7-6-2-|
R.I.P. Ronnie James Dio. Supplied amazing music to both me and my mother.

He will be missed.
#9
Sounds like a metalcore riff,

By the way, mine starts with Vi.... .. ......
Quote by razorback91
Im sorry, I just don't see how you could argue that hardcore isn't metal. That just seems arrogant to me.

Yes, its its own kind of metal, but its still metal.
#10
https://www.ultimate-guitar.com/forum/showthread.php?t=1011273

How the fuck can you miss that?

Quote by larrytheguitar
Okay, is it alright if I make a new rule? If no one get's it right for 5 turns, you can post you're own. I don't know the song, and don't want this thread to die, so...

|--------------------------------------|
|--------------------------------------|
|--------------------------------------|
|--------------------------------------|
|-----------7h8------8h10--------------|
|-00-0-00-0-----00-0------00-0-3-7-6-2-|


Hourglass by a band that isn't allowed in here ffs.