#1
hey everyone

having a bit of trouble with pull off's in voodoo child , the 15th bar of the intro ( after h starts playing ) i cant get my fingers around it . ITS DOING MY BLOODY HEAD IN

can anyone give me a few pointers ? i mean what fingers do you use to pull off ??

thanks D
#2
I think I know what you're talking about. I use my middle and index finger to hit the Em(I think this is what you're talking about) and I barely lift my index and use my middle to do the pulloff.
#4
you mean when it's just jimi playin the intro melody with the wah? I just looked at some of the guitar pro tabs for it and I guess that's what you're talkin about cuz they all try to get all the nuances of jimi's playing into the tab and it sounds like shit in a GP


if you're talking about the intro, I basically play it like this, but with a little flair:


|-----------------------------------------|
|-----------------------------------------|
|9br-7-----7--------------9br-7-----9-9p7-|
|-------9-----5-5--7p5-----------9--------|
|----------------------7------------------|
|-----------------------------------------|

|-----------------------------------------|
|-----------------------------------------|
|9br-7-----7--------------9br-7-----9\----|
|-------9-----5-5--7p5-----------9--------|
|----------------------7------------------|
|-----------------------------------------|

|-----------------------------------------|
|-----------------------------------------|
|9br-7-----7--------------9br-7-----9-9p7-|
|-------9-----5-5--7p5-----------9--------|
|----------------------7------------------|
|-----------------------------------------|

|-------------------------------------------------------|
|--------------------------------------10b12-12r10------|
|9br-7-----7--------------9br-7-----9---------------8---|
|-------9-----5-5--7p5-----------9----------------------|
|----------------------7--------------------------------|
|-------------------------------------------------------|