#2
this is the song minus the final solo (sorry if the solo it's not perfect..)


e|----------------------------------------------------------------|
B|---------------5--x--5--------------------5-x--5-------------|
G|---------------4--x--4--------------------4-x--4-------------|
D|---4-4--------4--x--4---------44-4-----4-x--4-------------| (2)
A|---4-4--------2--x--2---------44-4-----2-x---2------------|
E|---2-2--------------------------22-2-------------------------|

pattern for verse:
e|-----------------------------------------------------------|
B|-----------------------------------------------------------|
G|-----------------------------------------------------------|
D|--4-4-------------------44-4--------------2------------|
A|--4-4----2p0h3-4-----44-4----2h3h4----------------|
E|--2-2-------------------22-2----------------------------|

e|-----------------------------------------|
B|-----------------------------------------|
G|---6-------8--4--6--------------------|
D|---6-------8--4--6---------------------|
A|---4-------6--2--4---------------------|
E|-----------------------------------------|

e|---------------------------------------|
B|---------------------------------------|
G|---------------------------------------|
D|------------------2----2--------------|(4)
A|-------1-2-3-4-----4----------------|
E|---2-----------------------------------|


pre solo:
e|---------------------------------------------------------------------------|
B|---------------------------------------------------------------------------|
G|----8-----9-----8----9--------------------------------------------------|
D|----8-----9-----8----9--------------------------------------------------|
A|----6-----7-----6----7--------------------------------------------------|
E|---------------------------------------------------------------------------|


solo:
e|-----12-14------12--14------12-14------12-14-------12-14-----12-14-------12-14-|
B|-14----------14-----------14----------14-----------14----------14----------14----------|
G|-----------------------------------------------------------------------------------------------|
D|-----------------------------------------------------------------------------------------------|
A|-----------------------------------------------------------------------------------------------|
E|-----------------------------------------------------------------------------------------------|


e|-------12-14-------12--14---------12^~----12vp9---12^~-----------------|
B|---14----------14------------14--------------------------------------------------|
G|------------------------------------------------------------------------------------|
D|-----------------------------------------------------------------------------------|
A|--------------------------------------------------------------------------------------|
E|-----------------------------------------------------------------------------------|

e|-12^---12vp9---12^---12vp9---12^---12vp9--12^12^--------18^---------|
B|-----------------------------------------------------------------------------------------|
G|-----------------------------------------------------------------------------------------|
D|-----------------------------------------------------------------------------------------|
A|-----------------------------------------------------------------------------------------|
E|-----------------------------------------------------------------------------------------|

e|--18^--18^-18^----18^v--14-17p14--17p14-17p14-17p14-17p14--------|
B|--18^--18^-18^----------------------------------------------------------------------|
G|-------------------------------------------------------------------------------------------|
D|-------------------------------------------------------------------------------------------|
A|-------------------------------------------------------------------------------------------|
E|-------------------------------------------------------------------------------------------|

e|--17p16p14-----------------------------------------------|
B|-----------------17p16p14---------------------------------|
G|--------------------------------16p14p13-------------------|
D|-----------------------------------------------16\------------|
A|---------------------------------------------------------------|
E|------------------------------------------------------------------|


final riff before ending:
e|-------------------------------------------------------------|
B|------------------------------------------------------------|
G|-------------------------------------------------------------|
D|------------------2----2/13\---------------2----2/13\----| etc...
A|-------1-2-3-4-----4-----------1-2-3-4-----4------------|
E|---2---------------------------------------------------------|
Last edited by crmrz at Jul 17, 2009,