#1
I don't usually like rap songs but the guitar in the background of this song sounds pretty cool and simple but i can't figure it out and i can't find a single tab anywhere. Could anyone possibly figure this song out and let me know what the tabs are?
Thanks a lot!
#2
e|---------6---------6----------6-------------------|
B|-----7--------7-----------9-------9--------------|
G|---------8---------8------8-----------------------|
D|----8---------8-----------9-----------------------|
A|----------------------------------------------------|
E|-----------------------------------------------------|
#3
crmrz 

e|----------2h-4p-2----------------4h-6p-4------------------------------------------|
B|-----------------------------------------------------------------------------------------|
G|-----4~~~~~~~~---------4~~~~~~~~---------------------------------------|             I think this is a lot more accurate sounding for
D|-----4~~~~~~~~---------6~~~~~~~~---------------------------------------|                 "BIGGIE SMALLS - STORY TO TELL"
A|-----4~~~~~~~~---------6~~~~~~~~---------------------------------------|                                             ;P
E|-----2~~~~~~~~---------4~~~~~~~~----------------------------------------|
    (G ♭ m)                   (A ♭ m)