#2
Honestly, take the time to learn the staff, it helps a ton. But for now try this guitar fretboard notes.
Quote by axethrower13
But you only die once, so you may as well experience it to the fullest.

Quote by ozzyismetal
Get her a goat. Bitches love goats.

Quote by Weaponxclaws
Plus, naturally I scream satanic rituals while unleashing the demon. It's a marvelous resurrection.
#3
Whats this piece called?
If The Sun Refused To Shine
I Would Still Be Loving You
Mountains Crumble To The Sea
There Would Still Be You And Me

My Stuff
Gibson Les Paul Studio
Roland Cube 30X
Washburn Acoustic
Dunlop CryBaby
#4
im not a pro at reading music yet, but isnt the first measure musically wrong?
Quote by Shattuck
I need some music that makes you envision a dark room illuminated by only candles and perhaps a creepy middle aged man in a bathrobe.


Quote by Skullbolt
Rape: Is it in you?
#6
Quote by metalisbest
im not a pro at reading music yet, but isnt the first measure musically wrong?

surprisingly no. i'm not sure if there's a technical term for this, but the first measure "borrowed" 2 beats from the last, which only has 2 beats as well.
Quote by AA00P
Listen to the man, he's Jewish.
#7
Quote by sam_brault
Whats this piece called?


its an old irish song called "The Boys of the Old Brigade"
#8
Quote by metalisbest
im not a pro at reading music yet, but isnt the first measure musically wrong?

That's called anacrusis. Look at the last bar, it "completes" the first.
In music, I plead for selective eclecticism.
#9

     H        H           H.           Q       H.           Q     
E||--------------------|--------------------|--------------------|
B||--------------------|--------------------|--1-----------------|
G||--------------------|--2------------3----|---------------2----|
D||--------------------|--------------------|--------------------|
A||-----------3--------|--------------------|--------------------|
E||--------------------|--------------------|--------------------|


  Q     Q    Q    Q       H.           Q       H.           Q     
-----------------------|--------------------|--------------------|
-----------------------|--------------------|--------------------|
--3p----2----0---------|---------------3----|--2------------2----|
------------------3----|--0-----------------|--------------------|
-----------------------|--------------------|--------------------|
-----------------------|--------------------|--------------------|


  Q     Q    Q    Q       W                   Q    Q    H         
-----------------------|-------------------|---------------------|
-----------------------|-------------------|---------------------|
--3p----2----0---------|--0----------------|--L------------------|
------------------3----|-------------------|---------------------|
-----------------------|-------------------|------------3--------|
-----------------------|-------------------|---------------------|


  H.           Q       Q     Q    Q    Q       H        Q    Q     
--------------------|-----------------------|---------------------|
--------------------|-----------------------|---------------------|
--2------------3----|--3p----2----0---------|-----------3----3----|
--------------------|------------------3----|--0------------------|
--------------------|-----------------------|---------------------|
--------------------|-----------------------|---------------------|


  H.           Q       Q     Q    Q     Q       W                 
--------------------|------------------------|-------------------|
--------------------|------------------------|-------------------|
--2------------2----|--3p----0---------------|-------------------|
--------------------|-------------3p----2----|--3----------------|
--------------------|------------------------|-------------------|
--------------------|------------------------|-------------------|


  Q    Q    H           H.           Q       H.           Q     
---------------------|--------------------|--------------------|
---------------------|--------------------|--------------------|
---------------------|--------------------|--0------------2----|
--L---------3--------|--2------------3----|--------------------|
---------------------|--------------------|--------------------|
---------------------|--------------------|--------------------|


  H        H           H.           Q       H.           Q     
--------------------|--------------------|--------------------|
-----------1--------|--1-----------------|---------------1----|
--3-----------------|---------------3----|--2-----------------|
--------------------|--------------------|--------------------|
--------------------|--------------------|--------------------|
--------------------|--------------------|--------------------|


  H        H           W                   Q    Q    H         
--------------------|-------------------|---------------------|
--------------------|-------------------|---------------------|
--3--------2--------|--0----------------|--L------------------|
--------------------|-------------------|---------------------|
--------------------|-------------------|------------3--------|
--------------------|-------------------|---------------------|


  H.           Q       H.           Q       H.           Q     
--------------------|--------------------|--------------------|
--------------------|--1-----------------|--1-----------------|
--2------------3----|---------------3----|---------------2----|
--------------------|--------------------|--------------------|
--------------------|--------------------|--------------------|
--------------------|--------------------|--------------------|


  Q     Q    Q    Q       H.           Q       H.           Q     
-----------------------|--------------------|--------------------|
-----------------------|--------------------|--------------------|
--3p----2----0---------|---------------3----|--2------------2----|
------------------3----|--0-----------------|--------------------|
-----------------------|--------------------|--------------------|
-----------------------|--------------------|--------------------|


  Q     Q    Q     Q       W                   Q    Q    H         
------------------------|-------------------|---------------------|
------------------------|-------------------|---------------------|
--3p----0---------------|-------------------|---------------------|
-------------3p----2----|--3----------------|--L---------3--------|
------------------------|-------------------|---------------------|
------------------------|-------------------|---------------------|


  H.           Q       H.           Q       H        H         
--------------------|--------------------|--------------------|
--------------------|--------------------|-----------1--------|
--------------------|--0------------2----|--3-----------------|
--2------------3----|--------------------|--------------------|
--------------------|--------------------|--------------------|
--------------------|--------------------|--------------------|


  H.           Q       H.           Q       H        H         
--------------------|--------------------|--------------------|
--1-----------------|---------------1----|--------------------|
---------------3----|--2-----------------|--3--------2--------|
--------------------|--------------------|--------------------|
--------------------|--------------------|--------------------|
--------------------|--------------------|--------------------|


  W                   Q    Q    H           H.           Q     
-------------------|---------------------|--------------------|
-------------------|---------------------|--------------------|
--0----------------|--L------------------|--------------------|
-------------------|---------------------|---------------0----|
-------------------|------------3--------|--3-----------------|
-------------------|---------------------|--------------------|


  H.           Q       H        H           H.           Q     
--------------------|--------------------|--------------------|
--------------------|--------------------|--------------------|
--------------------|--0--------2--------|--3------------3----|
--2------------3----|--------------------|--------------------|
--------------------|--------------------|--------------------|
--------------------|--------------------|--------------------|


  H        Q    Q       H.           Q       W                 
---------------------|--------------------|-------------------|
---------------------|--------------------|-------------------|
--2--------0---------|--2------------0----|-------------------|
----------------3----|--------------------|--3----------------|
---------------------|--------------------|-------------------|
---------------------|--------------------|-------------------|


  Q    Q    H          
---------------------||
---------------------||
---------------------||
--L------------------||
---------------------||
---------------------||


Mid file attached. Tempo may be wrong because I had no clue of it in this sheet music.
Attachments:
TTR.mid
Quote by zappp
emad I'm gonna ban you, seriously.