#3
if i can remember, the beginning of bleeding mascara by atreyu use 3 string sweeps, or maybe im thinking of another song by them >_<

Edit: my bad, its 4 string
Forever feels retarded in MT forum

-Equipment-
Squier Champ 15
Squier Bullet Stratocaster
-Shopping list-
Boss DS-1 Distortion Pedal
1 guitar cable for that pedal
#4
Quote by XxDre09xX
if i can remember, the beginning of bleeding mascara by atreyu use 3 string sweeps, or maybe im thinking of another song by them >_<

Edit: my bad, its 4 string

Bleeding Mascara is 3 string.

Another good one is the sweeping to No Pity for a Coward by Suicide Silence/Pray for Plagues by BMTH, they are the same sweep so either is fine.

Start with something like this:

|-----------------13h17p13---------------|
|--------------15----------15--------------|
|-----------14----------------14-----------|
|--------15----------------------15--------|
|--12h17----------------------------17---|
|--------------------------------------------|

And then moving on to this:


|-----------------13h17t22p17p13----------------|
|--------------15----------------------15------------|
|-----------14----------------------------14---------|
|--------15----------------------------------15------|
|--12h17---------------------------------------17--|
|------------------------------------------------------|

and then this:

|-----------------15h19t22p19p15-----------------|
|--------------16----------------------16-------------|
|-----------16----------------------------16----------|
|--------17----------------------------------17-------|
|-----17----------------------------------------17----|
|--19----------------------------------------------19-|
Guitars:
Schecter Hellraiser C7 - EMG81-7 bridge, EMG707 neck.

Amp:
Peavey 6505
Hughes and Kettner 4x12