#1
http://www.youtube.com/watch?v=IeVsHYVoFxY

could anybody tab this for me? my ear skills are limited an whilst i am trying i cant seem to get anywhere.... all i know is that he must do it in d standard tuning, so DGCFAD. other then... plz help?
My Rig:
American Standard Telecaster
Fender Starcaster
Sp. Edition Jack Daniels Strat (Modded)
Vox AC15CC1


Stuff I've Built:
Telecaster Deluxe
Telecaster Junior
Pedalboard (from a shelf )
the odd pedal
#2
e---------------------------------------------------
b---------------------------------------------------
g--------------------------------------------------
d --------4 ---2 -------------4------2------------
a----0-2--------------------------------5 -------5
d 3-------------------------------------------------
Last edited by bulletallica at Jul 17, 2009,
#3
ye that didnt help at all, you obviously didn't watch the video. thanks for that.
My Rig:
American Standard Telecaster
Fender Starcaster
Sp. Edition Jack Daniels Strat (Modded)
Vox AC15CC1


Stuff I've Built:
Telecaster Deluxe
Telecaster Junior
Pedalboard (from a shelf )
the odd pedal
#4
wow uh kinda complicated to tab out dont cha think?
prob more of a feel song
Jackson DXMG -> Vai Morley Wah -> Korg Black Tuner -> (Need a delay) -> Maxon OD808 -> BBE Sonic Maximizer -> ISP Noisegate -> Mesa Boogie Mark IV
#5
I'll tab it, give me a few hours.
Quote by Carmel
You are a redeeming feature for the UG Swedish population.


All-riiight.
#6
Quote by billybusa
I'll tab it, give me a few hours.

that would be extremely cool.
Thomas hopes to not have offended anyone with this post. No responsibility whatsoever is taken for any spelling or grammar mistakes, should there be any.

last.fm
#7
Sorry man, that chorus is WAY too hard for me to tab.

Here's everything before the chorus though:

D||----------------------|---------------------------|
A||----------------------|---------------------------|
F||----------------------|---------------------------|
C||-----------------2----|--------5--2----p0--2h4----|
G||-----------------2----|-----2---------------------|
D||-----------------0----|--3------------------------|

-----------------------|---------------------------|-------------|
-----------------------|---------------------------|-------------|
-----2----2------------|---------------------------|-----2-------|
--2--0----0------------|--------5--2----p0--2h4----|--2--0-------| Play twice
-----------------------|-----2---------------------|-------------|
------------------0----|--3------------------------|-------------|

-----7--7-----7----------|--10--7---------7-------6/--|
-----8--8-----8----------|---7-----10-----7-------7/--|
-----9--9-----9----------|------------------------8/--|
----------------------0--|---0--0------0--0-----------|
-------------------------|----------------------------|
-----0--0-----0----------|------------------------0---|

--7--7--------7----------|--7------7\--------------|
--8--8--------8----------|--8--10--7\--------------|
--9--9--------9----------|--7---7--7\--------------|
----------------------0--|--0----------------------|
-------------------------|----------------------3--|
-----------0--0----------|-------------------------|

--3h5--3-------------3-----|------------------------|
----------5-----5----------|--7--5-------------7----|
---------------------------|--------7-----7---------|
---------------------------|------------------------|
----3--------3--3-------3--|--5-----5-----5---------|
---------------------------|------------------------|

--------------------------|-----------------------|
--8-----------------------|-----------------------|
-----9--------9\-------7--|--7-----7--------------|
--------------9\-------7--|--7-----7--------------|
--7--7-----7--7\-------5--|--5-----5--------------|
--------------------------|-----------------------|

-----7--7-----7----------|--10--7---------7-------6/--|
-----8--8-----8----------|---7-----10-----7-------7/--|
-----9--9-----9----------|------------------------8/--|
----------------------0--|---0--0------0--0-----------|
-------------------------|----------------------------|
-----0--0-----0----------|------------------------0---|

--7--7--------7----------|--7------7\--------------|
--8--8--------8----------|--8--10--7\--------------|
--9--9--------9----------|--7---7--7\--------------|
----------------------0--|--0----------------------|
-------------------------|----------------------3--|
-----------0--0----------|-------------------------|

--3h5--3-------------3-----|------------------------|
----------5-----5----------|--7--5-------------7----|
---------------------------|--------7-----7---------|
---------------------------|------------------------|
----3--------3--3-------3--|--5-----5-----5---------|
---------------------------|------------------------|

-------------------------|--10--7------7\----------||
--8-----------8----------|---7------x--7\----------||
-----9--------9----------|----------x--------------||
--------------9-------0--|----------x--------------||
--7--7-----7--7----------|---0------x--0-----------||
-------------------------|-------------------------||
Quote by Carmel
You are a redeeming feature for the UG Swedish population.


All-riiight.
#8
dude u are immense. this will help lots!!!! cheers

he also does a pretty sick version of nothing else matters......
My Rig:
American Standard Telecaster
Fender Starcaster
Sp. Edition Jack Daniels Strat (Modded)
Vox AC15CC1


Stuff I've Built:
Telecaster Deluxe
Telecaster Junior
Pedalboard (from a shelf )
the odd pedal
Last edited by Robbo1422 at Jul 18, 2009,