#1
Okay, I've been writing this song, and I'm current;y taking a break, and decided, hey, there are undoubtedly other ways to play what I've got going on, so here is a tab of my intro, please, use any amount of distortion you like, any speed, and even throw in suggestions on how to make the tab better:


-0--0--0-1--1-1-3--3--3-4--4--4-5--5--5-7--7--7-9---9---9--10---10--10-12--12--------
--1--1--1-1--1-1-4--4--4-4--4--4-6--6--6-8--8--8-10-10--10-10---10--10-13--13-------
---2--2-----2--2----5--5----5--5-----7--7----9--9-----11-11-------11--11------14---14-----
----------------------------------------------------------------------------------------------
----------------------------------------------------------------------------------------------
----------------------------------------------------------------------------------------------


-12-13---13---13--12---9----7--5--3--0---1p0--0----------------------------------
---13-13---13--------13--10---8--6--4--1------1--0---------0~~------------------------
---------14---14-14----14--11--9--7--5--2------2-------------------------------
------------------------------------------------------------2/5~~------5/7~~~-------------------
----------------------------------------------------------------------------------------------
----------------------------------------------------------------------------------------------
#2
isnt it your job to make the song better not other people?
This is a MotherFxcking Invatation
#3
Quote by travs2448
is the puppy solid state or tube?

Quote by diceksox1809
solid state. when she screams it pisses me off

^

Quote by GrizzlyFnAdams6
Dimebag had s*** tone and that guitar plays like an abortion. Come at me, bro!


Quote by jpatan
It's because Garth Brooks brings the ****in' br00tz.
#4
Quote by travs2448

wow that is great man ty, that could be like, the second verse, or possibly a redone intro, idk ill get back to work with it, thanks man
#5
-------0------0-----0-----1------1----1----0----0-----0----0-------0-----0-----------------
----------1-----1------1---1------1----1-----1----1-----1-----3------3------3-------
------------2------2---------2------2----------0----0------------4-----4-------------------
-----------------------------------------------------------------------------------------
------------------------------------------------------------------------------------------
--------------------------------------------------------------------------------------------
i could play like eric clapton if i had his gear...anyone could
#6
Quote by GypsyFire
-------0------0-----0-----1------1----1----0----0-----0----0-------0-----0-----------------
----------1-----1------1---1------1----1-----1----1-----1-----3------3------3-------
------------2------2---------2------2----------0----0------------4-----4-------------------
-----------------------------------------------------------------------------------------
------------------------------------------------------------------------------------------
--------------------------------------------------------------------------------------------

Actually, I don't really like this one too much...