#1
I know on the album that this is all done with synth, but I've been wanting to try to get it to guitar and I'm just starting to learn to sweep pick. I was just wondering what all techniques and fingerings would be used to play the tab below. I'm not sure if I should attempt to pick the notes on the E strings and sweep the rest of it, or try and alternate pick all of it?
Gracias


e|---------------------11-15-11--------------------|
B|------------------13----------13-----------------|
G|---------------12----------------12--------------|
D|---------10-13----------------------13-10--------|
A|------10---------------------------------- 10-----|
E|-8-11---------------------------------------- 11--|

e|---------------------10-13-10-------------------|
B|------------------11----------11----------------|
G|---------------10----------------10-------------|
D|------------12----------------------12----------|
A|--------- 13----------------------------13-------|
E|-6-10-13----------------------------------13-10-|

e|---------------4-8-4--------------|
B|-------------6-------6------------|
G|-----------5-----------5----------|
D|-------3-6---------------6-3------|
A|-----3----------------------- 3----|
E|-1-4---------------------------4--|
#2
I would probably do something like this:
e|---------------------11-15-11--------------------|
B|------------------13----------13-----------------|
G|---------------12----------------12--------------|
D|---------10-13----------------------13-10--------|
A|------10----------------------------------10-----|
E|-8-11----------------------------------------11--|

   d  u  d  d  u  d  d  d  u  d  u  u  u  d  u  u


e|---------------------10-13-10-------------------|
B|------------------11----------11----------------|
G|---------------10----------------10-------------|
D|------------12----------------------12----------|
A|---------13----------------------------13-------|
E|-6-10-13----------------------------------13-10-|

   d  u  d  d  d  d  d  d  u  d  u  u  u  u  u  d


e|---------------4-8-4--------------|
B|-------------6-------6------------|
G|-----------5-----------5----------|
D|-------3-6---------------6-3------|
A|-----3-----------------------3----|
E|-1-4---------------------------4--|

   d u d d u d d d u d u u u d u u 
#3
I would probably sweep the whole thing and use hammerons and pulloffs for the extra notes.
#4

e|--------------------------11h15p11-------------------------|
B|-----------------------13-----------13---------------------|
G|-------------------12-------------------12-----------------|
D|------------10h13---------------------------13p10----------|
A|--------10-----------------------------------------10------|
E|--8/11-------------------------------------------------11--|


e|---------------------------10h13p10-------------------------|
B|-----------------------11------------11---------------------|
G|-------------------10--------------------10-----------------|
D|---------------12----------------------------12-------------|
A|-----------13------------------------------------13---------|
E|--6h10/13--------------------------------------------13p10--|

e|---------------------4h8p4-------------------|
B|------------------6---------6----------------|
G|---------------5---------------5-------------|
D|------------6---------------------6----------|
A|-------3/8---------------------------8/3-----|
E|--1h4-------------------------------------4--|
Originally Posted by evening_crow
Quoting yourself is cool.


WARNING: I kill threads.