#1
What is that 4 note blues riff in tab? i think its the same first and third note as well. its used commonly after somebody says a few words (lol)
#2
lolwut
Information is not knowledge
Knowledge is not wisdom
Wisdom is not truth
Truth is not beauty
Beauty is not love
Love is not music
Music is THE BEST...-Zappa
#3
like " i walk in a bar" and then the guitar goes like

----------------------
----------------------
--0--5--0--3--0----
--0--5--0--3--0----
----------------------
----------------------
?? tht one?

and then the singer says "i order a drink"

btw thts not an actual song the singer is just supposed to tell a story tht happened recently
#5
Quote by huskyplayer
like " i walk in a bar" and then the guitar goes like

----------------------
----------------------
--0--5--0--3--0----
--0--5--0--3--0----
----------------------
----------------------
?? tht one?

and then the singer says "i order a drink"

btw thts not an actual song the singer is just supposed to tell a story tht happened recently

That's probably the one OP was looking for. If not, it's this.

-----------------
-----------------
--0--5--3--0--
--0--5--3--0--
----------------
----------------
#6
First post!

Or it could be like this, but I think he's thinking more along the lines of Thorogoods 'Bad To The Bone'

-------------------------
--------------------------
-------------------------
-------------------------
------------------7------
55--55--55--5---5-8-

Credit goes to Allman Brothers version of Hoochie Coochie Man
#7
Quote by Grimshaw
First post!

well aren't you quick on the draw.
Quote by SomeoneYouKnew
Your post was the only bright spot in this disgusting piece of thread.

Quote by lexanirider78
You have balls. I like balls....(awkward silence)

Quote by SeveralSpecies
I waited for the rape.

...


...but the rape never came
#8
Quote by ryan_nadon
well aren't you quick on the draw.


LoL - He meant that it was his first post on these forums. Not that he "got" the first post in the thread.
#9
---------------------
---------------------
---------------------
------------2-------
----0-2----2-------
-3-------3-0------- This, perhaps?
#10
---------------------
---------------------
---------------------
-----2---------------
-2--0---------------
-0-------3---0-------
My Deviantart

Great Minds Think Alike
Quote by Son.Of.TheViper
You sigged me, AND had an idea the same as mine!
I like you.

About my Lady Gaga/Pokemon parody
Quote by Mike50227
XD not bad

Quote by ExOblivione
You're my hero.

Quote by myevilside
I must say, i love it!
#11
Quote by Turkeyburger
---------------------
---------------------
---------------------
------------2-------
----0-2----2-------
-3-------3-0------- This, perhaps?


is that the kill bill theme?
Quote by Son.Of.TheViper
Hmm... seems the thread has been taken over by a swimming pool filled with sperm.

Quote by iantheman
Whenever I run out of tissues, I get worried that I'll be caught hopping through the hallway with my pants around my knees, a dying erection, and a fist full of semen.
#12
-----------------------------------5---8-----------------------------------
----------------------------5---8------------------------------------------
---------------------5-7-8------------------------------------------------
--------------5---7--------------------------------------------------------
-------5-6-7--------------------------------------------------------------
5---8----------------------------------------------------------------------

Blues Scale?