#1
I've seen a ton of tabs for this song, they are all only partially correct. I submitted this yesterday but the admins denied it... I guess they don't know much about playing this song, because this is exactly how it is played... I have this habit of analyzing Angus/Malcolm videos to determine EXACTLY how they play this stuff.... so here goes:

 Intro:                    (Let ring...........................)
|--------------------|-----------------------|----------------------|
|--------------------|--------------3-----2--|----------------------|
|--------------1--1--|---------4-------4--2--|---2-----0------1--1--|
|--------------2--2--|------2----------------|---------0------2--2--|
|--------------2--2--|-----------------------|----------------2--2--|
|--------------0--0--|-----------------------|----------------0--0--|

3rd time:
|-----------------------|-------------------|----------------------|
|--------------3-----2--|--------3----------|-----3----3--------3--|
|---------4-------4--2--|--------0----------|--1--2----0--------2--|
|------2-------------2--|--------0----------|--2--0----0--------0--|
|--------------------0--|--------x----------|--2--x----x--------0--|
|-----------------------|--------3----------|--0--2----3-----------|

|-------------------|------------------------|------------------|
|--------2----------|-----3----3--3----3--3--|------------------|
|--------2----------|--1--2----0--0----0--2--|------------------|
|--------2----------|--2--0----0--0----0--0--|------------------|
|--------0----------|--2--x----2--2----2--0--|------------------|
|-------------------|--0--2----3--3----3-----|------------------|

Verse guitar 1: (Angus, w/gain)      <soft>
|----------------------5--5-5--5--5--------|
|---10--9----9--7---7--5--5-5--5--5---10---|
|----9--9----9--7---7--6--6-6--7--6----9-9-|
|---11--9----9--7---7--7--7-7--7--7---11-9-|
|--------------(0)-------------------------|
|------------------------------------------| 
|
Verse guitar 2: (Malcolm, less gain)
|------------------------------------------|
|------------------------------3--2--------|
|----9--9----9--7---7--2--2-2--2--2--------|
|----9--9----9--7---7--2--2-2--4--2--------|
|----7--7----7--5---5--0--0-0--------------|
|------------------------------------------| 

Over solo play this:
|------------------------(3)---|
|-------------------------3----|
|---1---1---1-1-1---2--2--0----|
|---2---2---2-2-2---2--2--0----|
|---2---2---2-2-2---0--0--x----|
|---0---0---0-0-0---------3----|

Bridge: (Play 4 times, then perform intro section)
|----------------------------------------|
|----------------------------------------|
|-1--1-----------------------------------|
|-2--2-----------------------------------|
|-2--2---------------5-------4~------2~--|
|-0--0----0--3-sl-7-----7----5~--5---3~--|

Towards the end, 4 times:  EVIL!...
|-------------------------------------|
|---------------3---------------------|
|-1--1----------2-----2---------------|
|-2--2----------0-----2---------------|
|-2--2----------0-----0---------------|
|-0--0--------------------------------|
#3
tukk04: I did submit it, but it got rejected by the admins. That's the reason why I posted it here instead.... too good a tab to just 'let go'!