#1
Hey everyone..
Im a self taught guitarist and so have no knowledge or understanding of notes and modes and names of scales and such (i am getting lessons eventually i just cant afford em right now..). So anyway i was messing around on my guitar and came across a fairly awesome sounding scale and im wondering if anyone could tell me the name of it because i really have no idea.
Cheers,
Jay..

----------------------------------------------------------------11-------
--------------------------------------------------------13-15----------- *
-----------------------------------------11-12-14-15------------------
------------------------------10-12-13---------------------------------
--------3-5-6--9-10-12-13--------------------------------------------
-3-5-6------------------------------------------------------------------

*and back again..
Quote by faint_spirit

^^^And I think you mean gateway drug. Not portal. If drugs were to create portals to other drugs, it would be pretty ****ing awesome.
#3
That would be G harmonic minor.
Neon Neon Neon Neon Neon Black


UG's #1 anti-active advocate

Gear:
Engl Powerball
Carvin DC727
Schecter C-1+
Line 6 Flextone 3
Line 6 M9
#4
Quote by Sz_Shredder...
Hey everyone..
Im a self taught guitarist and so have no knowledge or understanding of notes and modes and names of scales and such (i am getting lessons eventually i just cant afford em right now..). So anyway i was messing around on my guitar and came across a fairly awesome sounding scale and im wondering if anyone could tell me the name of it because i really have no idea.
Cheers,
Jay..

----------------------------------------------------------------11-------
--------------------------------------------------------13-15----------- *
-----------------------------------------11-12-14-15------------------
------------------------------10-12-13---------------------------------
--------3-5-6--9-10-12-13--------------------------------------------
-3-5-6------------------------------------------------------------------

*and back again..



hmmm.

3= g and the 6=a sharp

so im assuming this is a g minor of some sort....
G A Bflat C D
E flat Gflat, G
hmmm
#5
awesome, thanks alot guys.
Quote by faint_spirit

^^^And I think you mean gateway drug. Not portal. If drugs were to create portals to other drugs, it would be pretty ****ing awesome.
#6
Quote by zeemonkey
hmmm.

3= g and the 6=a sharp

so im assuming this is a g minor of some sort....
G A Bflat C D
E flat Gflat, G
hmmm


yeah i dont know if actually a complete scale or whatever but it sounds pretty cool..
Quote by faint_spirit

^^^And I think you mean gateway drug. Not portal. If drugs were to create portals to other drugs, it would be pretty ****ing awesome.