#1
hi what rap song is this riff from

E||----------------------|----------------------------|-------|------||
B||----------------------|----------------------------|-------|------||
G||----------------------|----------------------------|-------|------||
D||-------7---5---7------|--5---3---5---5---3---5---3-|-------|------||
A||--5-------------------|----------------------------|--5--3-|------||
E||----------------------|----------------------------|-------|------||
Last edited by shanchu at Jul 24, 2009,
#2
can't tell without the rhythm personally. power tab it? or atleast put it in the code brackets so the notes line up.
#3
that's a horrible riff.
Quote by icaneatcatfood
On second thought, **** tuning forks. You best be carrying around a grand piano that was tuned by an Italian
#4
notes go..

D A G A | G F# G G F# G F# | D C | rest |

don't see whats horrible about that, I'm sure when played in the intended timing it sounds fine.
#5
Quote by squidlips
notes go..

D A G A | G F# G G F# G F# | D C | rest |

don't see whats horrible about that, I'm sure when played in the intended timing it sounds fine.
Those F#s are F naturals.
Only play what you hear. If you don’t hear anything, don’t play anything.
-Chick Corea
#6
I'm gonna say The Next Episode by Dr. Dre.
This is my signature. There are many like it but this one is MINE.
#7
when tabbing in the forums you should put it in tags, like this

[code]E||----------------------|----------------------------|-------|------||
B||----------------------|----------------------------|-------|------||
G||----------------------|----------------------------|-------|------||
D||-------7---5---7------|--5---3---5---5---3---5---3-|-------|------||
A||--5-------------------|----------------------------|--5--3-|------||
E||----------------------|----------------------------|-------|------||[/code]


but even with it lined up correctly I can't figure out a way to make it sound like anything familiar.

edit: I think sixstringsteve got it
Last edited by The4thHorsemen at Jul 24, 2009,