#1
1.

--------------------------------------------------------------------------------------------------------------
--------------------------------------------------------------------------------------------------------------
----------0--------------0--------------0--------------0----------------------------------------------------
-------0----0---------0---0---------0----0---------0---0--------------------------------------------------
----2--------------0---------------0--------------0---------------------------------------------------------
-0--------------3---------------2--------------1------------------------------------------------------------

2.

--------------------------------------------------------------------------------------------------------
-------3-------------------------------------------------------------------------------------------------
-------0---------0----------------------------------------------------------------------------------------
-----------0---------------------------------------------------------------------------------------------
---------------2-----------------------------------------------------------------------------------------
---3-----------------------------------------------------------------------------------------------------


number 2 isnt finsihed yet i wrote it 2 minutes ago lol but tellme what u think
Last edited by tabmastar at Jul 24, 2009,
#2
THOSE ARE TOTALLY SICK YOU SHOULD DEFINITELY MAKE A BAND U WILL BE FAMOUS ON EM TEE VEE.a
#3
Use Guitar Pro
If you cant afford it, Tuxguitar is free (google it)
ERROR 0x45: Signature not found
#5
You should definitly use guitar pro. and Jayez there's no need to be a dick. They're okay and would be a good starting point but you need to build around them.
#6
those riffs sound quite good.But i think they would be better if they were that way

--------------------------------------------------------------------------------------------------------------
----------0--------------0--------------0--------------0----------------------------------------------------
-------0----0---------0---0---------0----0---------0---0--------------------------------------------------
----2--------------0---------------0--------------0---------------------------------------------------------
-0--------------4---------------2--------------1------------------------------------------------------------

2.

--------------------------------------------------------------------------------------------------------
-------3-------------------------------------------------------------------------------------------------
-------0---------0----------------------------------------------------------------------------------------
-----------0---------------------------------------------------------------------------------------------
---------------2-----------------------------------------------------------------------------------------
---0-----------------------------------------------------------------------------------------------------