#2
Here's the beginning, dont have time to do the whole song now.

Play this twice, last time leave the last B (2nd fret A string away)

e|---------------------------------------------------------------------------|
B|---------------------------------------------------------------------------|
G|---------------------------------------------------------------------------|
D|--------5-----------------5----4----------------------------------------|
A|-----2-----5-4-5------2-----2----2-------------------------------------|
E|--3-----------------0----------------------------------------------------|


Then i think one guitar just plays high G5 and E5 chords, while the other does:

e|-----------------------------------------------------------------------------------------------|
B|----------------------------------------------------------------------------------------------|
G|--7-7-7\6-6-6-----7-7-7\6-6-6---7-7\6-6---7-7-7\6-6-6-----7-7-7-7-7/9-9/11--|
D|-----------------------------------------------------------------------------------------------|
A|--5-5-5\4-4-4-----5-5-5\4-4-4---5-5\4-4---5-5-5\4-4-4-----5-5-5-5-5/7-7/9----|
E|-----------------------------------------------------------------------------------------------|


e|-------------------------------------------------------------------------------------------|
B|-------------------------------------------------------------------------------------------|
G|---7-7-7\6-6-6-----7-7-7\6-6-6---7-7\6-6---7-7-7\6-6-6---7-7-7\6-6\4-4----|
D|--------------------------------------------------------------------------------------------|
A|---5-5-5\4-4-4-----5-5-5\4-4-4---5-5\4-4---5-5-5\4-4-4---5-5-5\4-4\2-2------|
E|---------------------------------------------------------------------------------------------|

Little guitar lick:

e|---------------------------------------------------------------------------|
B|-----------------------10\----------------------------10-----------|
G|---6-7-9-7---7-6-7---------7-6-7-9-7----7-6-7-------------------|
D|---------------------------------------------------------------------------|
A|---------------------------------------------------------------------------|
E|---------------------------------------------------------------------------|
#3
oh man i already forgot about this xD
thx for the efforts, i'll try this imediatly!