#2
Alright, I've been trying to figure this out, this is what I got for the intro:

Intro:

Capo 2

e|-------------------3----------------------------3---------------------------------------------------------3------|
B|-1---------1-----------------1---------1-----------------1----------------------------1---------1-------------|
G|-------------------------------------------------------------------------------------------------------------------|
D|--------2-------------2-------------2-------------2-------------2-------------2-------------2-------------2--| A|-3-------------3-------------3-------------3-------------3-------------3-------------3-------------3---------|
E|-------------------------------------------------------------------------------------------------------------------|


And then i think in the verse he fingerpicks a melody using the following four chords, but I'm not totally sure:

---C--------?-------Asus2----Em-----

e|-0--------0----------0---------0-------|
B|-1--------0----------2---------0-------|
G|-0--------0----------2---------0-------|
D|-2--------0----------0---------2-------|
A|-3--------2----------0---------2-------|
E|---------------------------------0-------|

Could someone check this to see if its close?
#3
hey thanks for tabbing the bit that you did. I'm new at guitar so I can't tab the rest but I gave this a try and it sounded good. the A sus sounded a bit too high though?