#2
how's this?
tuned down full step (D G C F A D)

intro
|-----------|----------|-----------|------|
|-----------|----------|-----------|------|
|-----------|----------|-----------|------|
|-7------7--|-8--------|-7------7--|-6----|
|-7------7--|-8--------|-7------7--|-6----|
|-5------5--|-6--------|-5------5--|-4----|


Main Riff/chorus riff

|---------------------|-----------------------|
|---------------------|-----------------------|
|-------x-5-------x-7-|-------x-5---------5---|
|-------x-5-------x-7-|-------x-5-----5h7-5-7-|
|-0-0-0-----0-0-0-----|-0-0-0-----5h7-------7-|
|---------------------|-----------------------|

Verse

|----------------|----------------|----------------|------|
|----------------|----------------|----------------|------|
|----------------|----------------|----------------|-5----|
|-7--------------|-8--------------|-7--------------|-5----|
|-7--------------|-8--------------|-7--------------|------|
|-5--5-5-5-5-5-5-|-6--6-6-6-6-6-6-|-5--5-5-5-5-5-5-|------|


not sure about this part
|----------------|----------------|----------------|---------------|
|----------------|----------------|----------------|---------------|
|----------------|----------------|----------------|---------------|
|-7--------------|-8--------------|-7--------------|---------------|
|-7--------------|-8--------------|-7--------------|-11-10--9--8---|
|-5--5-5-5-5-5-5-|-6--6-6-6-6-6-6-|-5--5-5-5-5-5-5-|--9--8--7--6---|


|----------------|----------------|----------------|------|
|----------------|----------------|----------------|------|
|----------------|----------------|----------------|-7----|
|-7--------------|-8--------------|-7--------------|-7----|
|-7--------------|-8--------------|-7--------------|------|
|-5--5-5-5-5-5-5-|-6--6-6-6-6-6-6-|-5--5-5-5-5-5-5-|------|


|----------------|----------------|----------|------|
|----------------|----------------|----------|------|
|----------------|----------------|-5--------|-4----|
|-7--------------|-8--------------|-5--------|-4----|
|-7--------------|-8--------------|-3--------|-2----|
|-5--5-5-5-5-5-5-|-6--6-6-6-6-6-6-|----------|------|

then back to the main riff and so forth.

and at the very end
------------------------------------------------
------------------------------------------------
------------------------------------------------
-7-7-x-x-x-x-8-8-x-x-x-x-9-9-x-x-x-x-10-x-11-x-12-
-7-7-x-x-x-x-8-8-x-x-x-x-9-9-x-x-x-x-10-x-11-x-12-
-5-5-x-x-x-x-6-6-x-x-x-x-7-7-x-x-x-x-8-x-9-x--10-




that's pretty much the whole thing. The rhythm for the solo is an low open D chord (normally an E but it's tuned down to D). If you want the solo, I guess I could figure that out too.

Also try these. they are similar.
http://www.ultimate-guitar.com/tabs/m/motley_crue/shout_at_the_devil_97_ver2_tab.htm
http://www.ultimate-guitar.com/tabs/m/motley_crue/shout_at_the_devil_97_tab.htm