#1
ive been looking for the proper tab for sweet child o mine (3rd solo) its mainly the little fast bit i need(where he puts the wah on). the rest of it i know but the tabs on the net for that little fast bit are wrong, ive seen people on youtube playing it right but they dnt send you tabs cause there assholes lol
FOR SALE: MESA BOOGIE STUDIO PREAMP
Ship Worldwide, Message me for details.
#2
you should be able to see what notes they are playing on the YT videos, and if you're good enough recognize them
#4
its hard to do it by ear, because for one its played quickly and 2 its got wah on so (i) cnt tell which notes are being played. heres the tab of the fast bit that ive been playing.

e---------------------------11------11-12/14-11-12-14/15-12-14-15-14p12-|
b------8p7----7-10/12-13p12----12-13------------------------------------|
g--8-9-----9------------------------------------------------------------|
d-----------------------------------------------------------------------|
a-----------------------------------------------------------------------|
e-----------------------------------------------------------------------|

e-----14----12h14p12---12-------|-----------------------|---------------|
b--15----16----------15--15bp12-|--15b--15b--15b15p12---|-17b-17b--17b--|
g-------------------------------|---------------------14|----------17b--|
d-------------------------------|-----------------------|---------------|
a-------------------------------|-----------------------|---------------|
e-------------------------------|-----------------------|---------------|.

this guy plays it like that http://www.youtube.com/watch?v=zN21bgJea9M

this is how i think it should be http://www.youtube.com/watch?v=q6luOnGTZDE
FOR SALE: MESA BOOGIE STUDIO PREAMP
Ship Worldwide, Message me for details.
#5
i really want toplay some GNR and when i tune half step down it still dosen't sound right, i think it need a reverb to pedal to make it sound perfect, can someone help me?
#6
yeh you will need reverb to have the tone. i usually have the bass all the way up and the reverb all the way up and the treble at about 12 oclock on my amp and it has a similar tone to it.
FOR SALE: MESA BOOGIE STUDIO PREAMP
Ship Worldwide, Message me for details.
#7
don't be a cheapo and go and BUY it. yes thats right, get off your ass, earn some money and BUY it.

worked for me..

I'm doing it if this years AMEB exam. eek, seriously nervous (and I still got 10 weeks)
#8
haha i already got the tab now , guy from youtube sent me the tabs in his book
FOR SALE: MESA BOOGIE STUDIO PREAMP
Ship Worldwide, Message me for details.