#1
I'm trying to learn legato and need to know some 3 note per string scales or runs that I could practice. Also some songs to start learning legato please. Thanks
I hate my sig
#2
*Waits in hiding to steal some licks*

*Is disappointed with lack of posting, and is sorry he hasn't gotten into into any full blown-legato and can't really help*
- ---------
-- --------
--- -------
---- ------
----- -----
------ ----
------- ---
-------- --
--------- -
Last edited by JacobLampman at Aug 3, 2009,
#5
well im gonna throw you straight into the fire with some 3nps pentatonics there are 4 in total as there arnt enough frets on a 24 fret guitar for the fifth pattern

E----------------------------------------------12-15-17----
B-----------------------------------9-12-15-----------------
G-------------------------7-9-12----------------------------
D-----------------5-7-9-------------------------------------
A---------2-5-7----------------------------------------------
E-0-3-5------------------------------------------------------

E---------------------------------------------------15-17-19-
B---------------------------------------12-15-17-------------
G----------------------------9-12-14-------------------------
D------------------7-9-12-------------------------------------
A---------5-7-10----------------------------------------------
E-3-5-7--------------------------------------------------------


E---------------------------------------------------------17-19-22-
B--------------------------------------------15-17-20--------------
G-------------------------------12-14-16---------------------------
D--------------------9-12-14---------------------------------------
A-----------7-10-12--------------------------------------------------
E-5-7-10------------------------------------------------------------

E----------------------------------------------------------------19-22-24------
B---------------------------------------------------17-20-22-------------------
G--------------------------------------14-16-19--------------------------------
D-------------------------12-14-17-------------------------------------------
A------------10-12-14----------------------------------------------------------
E-7-10-12---------------------------------------------------------------------

there, you may need big fingers to do this but once you play them often itll become easier like anything with practice