#1
I recently bought their mini album 'They All Have Two Faces', and the whole thing is just incredible!! If anyone could tab any of the songs that arn't already done that'd be amazing.

Behind Bars is one of my favourites songs and can be found on youtube here:
http://www.youtube.com/watch?v=CirVO_8FCEs

If anyone could tab that...or Guitar Pro tab it, that'd be great They play in Drop D I believe.

-Guy
http://www.facebook.com/someofusneverdie

Check us out, we'd really appreciate any feedback or support.

Gear:
Gibson Les Paul Custom
Yamaha RGX-A2
Orange Thunderverb 200H
Orange PPC412 Cab
- Woo!!
Boss TU-2, ISP Decimator, MXR Carbon Copy
Last edited by Guy101 at Aug 5, 2009,
#2
I think alot of people would like this song if you gave it one chance
And I know there's some talented tabbers out there!!

-Guy
http://www.facebook.com/someofusneverdie

Check us out, we'd really appreciate any feedback or support.

Gear:
Gibson Les Paul Custom
Yamaha RGX-A2
Orange Thunderverb 200H
Orange PPC412 Cab
- Woo!!
Boss TU-2, ISP Decimator, MXR Carbon Copy
#3
Not even any attempts? I don't ask for much :-(

-Guy
http://www.facebook.com/someofusneverdie

Check us out, we'd really appreciate any feedback or support.

Gear:
Gibson Les Paul Custom
Yamaha RGX-A2
Orange Thunderverb 200H
Orange PPC412 Cab
- Woo!!
Boss TU-2, ISP Decimator, MXR Carbon Copy
#4

---------------------------
---------------------------
---------------------------
-3-------5-------7---------
-3-------5-------7---------
-3-(x8)--5-(x8)--7-(x16)


And then:


------------------------------------------------------------------------------------------------
------------------------------------------------------------------------------------------------
------------------------------------------------------------------------------------------------
-8------8--10--------10--12---------------------8--10--12-------------------8--10--12-----------
---000---------000-------------000-000-00------------------000-000-00---------------------------


I THINK that seems to be some of the main parts to the song, but a complete tab or GPro tab would be great. Anyone??

-Guy
http://www.facebook.com/someofusneverdie

Check us out, we'd really appreciate any feedback or support.

Gear:
Gibson Les Paul Custom
Yamaha RGX-A2
Orange Thunderverb 200H
Orange PPC412 Cab
- Woo!!
Boss TU-2, ISP Decimator, MXR Carbon Copy
#5
Got another bit! The second verse starts differently, goes something like this:

D---------------------------
A---------------------------
D-10--7-7-7-7--0--7-7------- (x4)


But I'm not sure where it goes after that.

Can't someone please help?

-Guy
http://www.facebook.com/someofusneverdie

Check us out, we'd really appreciate any feedback or support.

Gear:
Gibson Les Paul Custom
Yamaha RGX-A2
Orange Thunderverb 200H
Orange PPC412 Cab
- Woo!!
Boss TU-2, ISP Decimator, MXR Carbon Copy
#6
Don't post 5 times in a row...
Quote by Carmel
You are a redeeming feature for the UG Swedish population.


All-riiight.
#7
Thanks for the help
It's not like I was spamming...
http://www.facebook.com/someofusneverdie

Check us out, we'd really appreciate any feedback or support.

Gear:
Gibson Les Paul Custom
Yamaha RGX-A2
Orange Thunderverb 200H
Orange PPC412 Cab
- Woo!!
Boss TU-2, ISP Decimator, MXR Carbon Copy