#1
im trying to write out a chord sheet, and idk the name of this chord..
i know im retarted.. but please help me out


E|-------3----------------------------|
B|-------2----------------------------|
G|-------x----------------------------|
D|-------3----------------------------|
A|-------1----------------------------|
E|------------------------------------|

i know its some variation of A# im just kinda new to chords out of the basic ones that you first learn
Happiness is like peeing your pants

everyone can see it but only you can feel its warmth
#4
Bbm6

EDIT: It could be called A# but I'd tend to go for Bb depending on the context
.
Last edited by Nietsche at Aug 5, 2009,
#5
Bbm6

i agree with nietzcshe and would call it Bb rather than A# - though they are exactly enharmonic- it's just bit more common (especially if you are used to being in jazz/swing bands :P)
The only 6 words that can make you a better guitarist:

Learn theory
Practice better
Practice more
#7
What they all said. Here's some workings
Quote by Codeman26
E|-------3----------------------------|
B|-------2----------------------------|
G|-------x----------------------------|
D|-------3----------------------------|
A|-------1----------------------------|
E|------------------------------------|


From low to high = A♯ E♯ C♯ F♯♯ or B♭ F D♭ G

Flats seem the better choice.
B♭ D♭ F form a B♭ minor triad.

G is a major sixth above B♭

chord = B♭m6
Si