#1
Hey all! I've been stuck in a slump for a couple of days now and my technique has gotten a lot sloppier because of it. I'm usually pretty accurate when I play, but lately I can't get my timing right and my hands don't really work together sometimes.

Any suggestions on how to improve my accuracy? Exercise examples would be really great.

Oh, and if I need to move this to the Guitar Techniques forum, please let me know.
#2
Practice your scales to help, also do something I call the spider walk (I'm not sure what it's really called).


Spider walk
Use metronome, start at 60BPS, increase speed when you feel comfortable
Numbers correspond to fingers
0 = No Finger
1 = Index Finger
2 = Middle Finger
3 = Ring Finger
4 = Pinky

 | 0 3 2 4 0 3 2 4 | 4 2 3 0 4 2 3 0 | 1 3 2 4 1 3 2 4 | 4 2 3 1 4 2 3 1 |
G|-------------1-3-|-3-1-------------|-------------2-4-|-4-2-------------|
D|---------0-2-----|-----2-0---------|---------1-3-----|-----3-1---------|
A|-----1-3---------|---------3-1-----|-----2-4---------|---------4-2-----|
E|-0-2-------------|-------------2-0-|-1-3-------------|-------------3-1-|

 | 1 3 2 4 1 3 2 4 | 4 2 3 1 4 2 3 1 | 1 3 2 4 1 3 2 4 | 4 2 3 1 4 2 3 1 |
G|-------------3-5-|-5-3-------------|-------------4-6-|-6-4-------------|
D|---------2-4-----|-----4-2---------|---------3-5-----|-----5-3---------|
A|-----3-5---------|---------5-3-----|-----4-6---------|---------6-4-----|
E|-2-4-------------|-------------4-2-|-3-5-------------|-------------5-3-|

 | 1 3 2 4 1 3 2 4 | 4 2 3 1 4 2 3 1 | 1 3 2 4 1 3 2 4 | 4 2 3 1 4 2 3 1 |
G|-------------5-7-|-7-5-------------|-------------6-8-|-8-6-------------|
D|---------4-6-----|-----6-4---------|---------5-7-----|-----7-5---------|
A|-----5-7---------|---------7-5-----|-----6-8---------|---------8-6-----|
E|-4-6-------------|-------------6-4-|-5-7-------------|-------------7-5-|

 | 1 3 2 4 1 3 2 4 | 4 2 3 1 4 2 3 1 |
G|-------------7-9-|-9-8-------------|
D|---------6-8-----|-----6-8---------|
A|-----7-9---------|---------9-7-----|
E|-6-8-------------|-------------6-8-| ETC
Last edited by sn4x at Aug 8, 2009,