#1
Remeber kindergarden when the whole class had to tell a story with each person only saying 1 word? Well were going to do that but with 2 chords/tab per person. I'll Start
ill update as we go
Standard tuning

e----------------------------------------------------------------------
B-------------------------------1--------------------------------------
G----|1|-------1----|0|----0------|4|--------4-----|7|--------7----
D-----------2------------2-----------------5----------------7---------
A--------2-----------|3|----------------5----------------5------------
E----|0|----------------------------|3|---------------|5|--------------
e--------------------------------------------5~--5-5----5-5---5--5~---------------
B--------------------------------------------5~--5-5----5-5---5--5~---------------
G-----7----7--7----------------------------5~--5-5----5-5---5--5~----------------
D----10--10-10--------5----5--5----------------------------------------------------
A-----7----7--7---------2----2--2---------------------------------------------------
E-----8----8--8---------3----3--3------------------------------------------------
Last edited by Hullucinate at Aug 9, 2009,
#2
.....G#/5- ............ F#sus4add13/E
e------------23br~---|
B-------------------|
G-----7------20-----|
D-----6------21-----|
A-----5------21-----|
E-----4------0------|
My Music Videos

Guitars:
Breedlove Revival Series OM
Crosby Fingerstyle Model
Voyage-Air VAOM-06
Fender Stratocaster (American)
Fender Nashville Deluxe Tele
Last edited by highwaysalmon at Aug 8, 2009,
#3
well, this is garbage... no offence though :P

First problem, you gave us an Am and Fmaj7, not Am and C

Second problem, highwaysalmon's chords are rediculous, sound terrible... and don't fit at all!

We should try again!

e----------------------------------------------------------------------
B-------------------------------1--------------------------------------
G----|1|-------1----|0|----0------|4|--------4-----|7|--------7----
D-----------2------------2-----------------5----------------7---------
A--------2-----------|3|----------------5----------------5------------
E----|0|----------------------------|3|---------------|5|--------------

There's a good intro, so maybe just play that twice... and work from there!
#4
^after fngrstylgtr's part

e--------------------------------------------5~--5-5----5-5---5--5~---------------
B--------------------------------------------5~--5-5----5-5---5--5~---------------
G-----7----7--7----------------------------5~--5-5----5-5---5--5~----------------
D----10--10-10--------5----5--5----------------------------------------------------
A-----7----7--7---------2----2--2---------------------------------------------------
E-----8----8--8---------3----3--3------------------------------------------------
#5
Quote by fngrstylgtr
well, this is garbage... no offence though :P

First problem, you gave us an Am and Fmaj7, not Am and C

Second problem, highwaysalmon's chords are rediculous, sound terrible... and don't fit at all!

We should try again!

e----------------------------------------------------------------------
B-------------------------------1--------------------------------------
G----|1|-------1----|0|----0------|4|--------4-----|7|--------7----
D-----------2------------2-----------------5----------------7---------
A--------2-----------|3|----------------5----------------5------------
E----|0|----------------------------|3|---------------|5|--------------

There's a good intro, so maybe just play that twice... and work from there!
no offense taken i fairly new to guitar started about a month ago
and i did mean C
e---0---
B---1---
G---0---
D---2---
A---3---
E------- typo in op
#6
|---0---------------------- |-----0--0---5--5---8--8------|
|-----1-3-------1-1-3-1-3-1 |-----1--1---5--5--10-10--10--|
|-----------2-------------- |-----2--2---5--5---9--9---9--|
|-------------------------- |--------------------------7--|
|-------0------------------ |-----0-------------8---------|
|-----------3---1-------0-- |------------3-------------0--|
#7
Anathetic, you should fix up your tab a bit... and Hullucinate, please remove my bits of the song from your post! Thanks! It adds confusions, quite frankly I don't know why you'd do that!
#8
you guys should add time signatures so ppl can play this song.
Schecter Diamond Series C-1 Elite
Roland Cube 30x
Blueridge BR-143
#9
You guys should just stick to chords first then develop it once the structure is down.
And no, Guitar Hero will not help. Even on expert. Really.
Soundcloud